0
SECTION
2
HEADER
999
*** POWERPCB  HEADER ***
9
$EXTMIN
10
-22.2853246667
20
-11.8395753333
9
$EXTMAX
10
74.0378246667
20
45.6669993333
9
$FILLMODE
70
0
9
$GRIDMODE
70
1
9
$GRIDUNIT
10
0
20
0
9
$INSBASE
10
50.8
20
76.2
9
$LIMCHECK
70
0
9
$PLINEWID
40
0.0254
9
$SNAPMODE
70
1
9
$SNAPUNIT
10
0.635
20
0.635
9
$TEXTSIZE
40
2.54
9
$TEXTSTYLE
7
W0$254
9
$USERI1
70
101
9
$USERI2
70
0
9
$USERI5
70
150
9
$VIEWCTR
10
25.8762493333
20
16.9137113333
0
ENDSEC
0
SECTION
2
TABLES
999
*** POWERPCB  LTYPE ***
0
TABLE
2
LTYPE
70
2
0
LTYPE
2
CONTINUOUS
70
64
3
---
72
65
73
0
40
0
0
LTYPE
2
TRMIDX_8192
70
64
3
---
72
65
73
2
40
2
49
1
49
1
0
LTYPE
2
KEEPOUT_10010100$0
70
64
3
---
72
65
73
2
40
2
49
1
49
1
0
ENDTAB
999
*** POWERPCB  LAYER ***
0
TABLE
2
LAYER
70
39
0
LAYER
2
DBLAYERS
70
1
62
-6
6
CONTINUOUS
0
LAYER
2
BOARD_OUTLINE_00
70
0
62
6
6
CONTINUOUS
0
LAYER
2
2D_LINE_26
70
0
62
2
6
CONTINUOUS
0
LAYER
2
DIMENSION7_26
70
0
62
6
6
CONTINUOUS
0
LAYER
2
DIMENSION1_26
70
0
62
6
6
CONTINUOUS
0
LAYER
2
DIMENSION2_26
70
0
62
6
6
CONTINUOUS
0
LAYER
2
DIMENSION3_26
70
0
62
6
6
CONTINUOUS
0
LAYER
2
DIMENSION4_26
70
0
62
6
6
CONTINUOUS
0
LAYER
2
DIMENSION5_26
70
0
62
6
6
CONTINUOUS
0
LAYER
2
DIMENSION6_26
70
0
62
6
6
CONTINUOUS
0
LAYER
2
TEXT_26
70
0
62
2
6
CONTINUOUS
0
LAYER
2
TEXT_24
70
0
62
1
6
CONTINUOUS
0
LAYER
2
LABEL_INFO
70
1
62
-6
6
CONTINUOUS
0
LAYER
2
LABEL_ATTRIBUTE
70
1
62
-6
6
CONTINUOUS
0
LAYER
2
PART_NAME_26
70
0
62
2
6
CONTINUOUS
0
LAYER
2
ATTRIBUTE_26
70
0
62
2
6
CONTINUOUS
0
LAYER
2
PART_TYPE_TOP
70
1
62
-250
6
CONTINUOUS
0
LAYER
2
PART_INFO
70
1
62
-6
6
CONTINUOUS
0
LAYER
2
PART_PTS
70
1
62
-6
6
CONTINUOUS
0
LAYER
2
SYM_NAME
70
1
62
-6
6
CONTINUOUS
0
LAYER
2
SYM_ATTRIBUTE_26
70
1
62
-6
6
CONTINUOUS
0
LAYER
2
SYM_PART_NAME_26
70
1
62
-6
6
CONTINUOUS
0
LAYER
2
SYM_TERMINAL
70
1
62
-6
6
CONTINUOUS
0
LAYER
2
PKG_INFO
70
1
62
-6
6
CONTINUOUS
0
LAYER
2
PART_TOP_2DLINE_26
70
0
62
2
6
CONTINUOUS
0
LAYER
2
DRIL_PLTE_THRU_01
70
0
62
16
6
CONTINUOUS
0
LAYER
2
DRIL_PLTE_THRU_02
70
0
62
3
6
CONTINUOUS
0
LAYER
2
DRIL_PLTE_THRU_03
70
0
62
176
6
CONTINUOUS
0
LAYER
2
PADS_INNER
70
0
62
1
6
CONTINUOUS
0
LAYER
2
PADS_BOT
70
0
62
5
6
CONTINUOUS
0
LAYER
2
PADS_TOP
70
0
62
1
6
CONTINUOUS
0
LAYER
2
DRIL_NPLTE_THRU_01
70
0
62
16
6
CONTINUOUS
0
LAYER
2
DRIL_NPLTE_THRU_02
70
0
62
3
6
CONTINUOUS
0
LAYER
2
DRIL_NPLTE_THRU_03
70
0
62
176
6
CONTINUOUS
0
LAYER
2
PART_TOP_2DLINE_24
70
0
62
1
6
CONTINUOUS
0
LAYER
2
KEEPOUT_00
70
0
62
1
6
CONTINUOUS
0
LAYER
2
PART_TOP_2DLINE_29
70
0
62
56
6
CONTINUOUS
0
LAYER
2
PCB_PARAMS
70
1
62
-6
6
CONTINUOUS
0
LAYER
2
DRIL_SYMBOL
70
0
62
6
6
CONTINUOUS
0
ENDTAB
999
*** POWERPCB  TEXT STYLE ***
0
TABLE
2
STYLE
70
5
0
STYLE
2
W0$1524
70
64
40
0
41
0.75
42
0
50
0
71
0
3
simplex
0
STYLE
2
W0$1016
70
64
40
0
41
0.75
42
0
50
0
71
0
3
simplex
0
STYLE
2
W0$0999993333
70
64
40
0
41
0.75
42
0
50
0
71
0
3
simplex
0
STYLE
2
W0$254
70
64
40
0
41
0.75
42
0
50
0
71
0
3
simplex
0
STYLE
2
W0$127R0
70
64
40
0
41
0.75
42
0
50
0
71
0
3
simplex
0
ENDTAB
0
ENDSEC
0
SECTION
2
BLOCKS
999
*** POWERPCB  DBLAYER ***
0
BLOCK
2
DBLAYERS
8
0
10
0
20
0
3
DBLAYERS
70
64
0
TEXT
8
DBLAYERS
10
0
20
-3.048
40
1.778
1
__It__Is__Job__Name__:=Untitled
999
 *  1.Number             2.Type                  3.RouteColor
999
 *  4.ViaColor           5.PadColor              6.CopperColor
999
 *  7.2DLineColor        8.TextColor             9.ErrorColor
999
 * 10.TopComponentColor 11.BottomComponentColor 12.RoutingDirection
999
 * 13.LayerThickness    14.CopperThickness      15.Dielectric
999
 * 16.IsRouteable       17.IsVisible            18.IsSelectable
999
 * 19.IsPrepreg         20.AssSilkScreen        21.AssPasteMask
999
 * 22.AssSolderMask     23.AssAssembly
0
TEXT
8
DBLAYERS
10
0
20
-6.096
40
1.778
1
Top:=1 1 12 12 12 12 12 12 12 12 12 0 0 53340 4.8000001907 1 1 1 0 26 23 21 -1 0 0 1 12 12 12 12 
0
TEXT
8
DBLAYERS
10
0
20
-9.144
40
1.778
1
Solder Mask Top:=21 5 5 5 5 5 5 5 5 5 5 2 0 0 0 0 0 1 0 -1 -1 -1 -1 0 0 0 5 5 5 5 
0
TEXT
8
DBLAYERS
10
0
20
-12.192
40
1.778
1
Drill Drawing:=24 2 12 12 12 12 12 12 12 12 12 2 0 0 0 0 1 1 0 -1 -1 -1 -1 0 0 0 12 12 12 12 
0
TEXT
8
DBLAYERS
10
0
20
-15.24
40
1.778
1
Silkscreen Top:=26 3 14 14 14 14 14 14 14 14 14 2 0 0 0 0 1 1 0 -1 -1 -1 -1 0 0 0 14 14 14 14 
0
ENDBLK
999
*** POWERPCB  BOARD ***
0
BLOCK
2
BOARD_4
8
0
10
0
20
0
3
BOARD_4
70
64
0
POLYLINE
8
BOARD_OUTLINE_00
66
1
40
0.2999993333
41
0.2999993333
70
1
0
VERTEX
8
BOARD_OUTLINE_00
10
115.7999993333
20
76.2
0
VERTEX
8
BOARD_OUTLINE_00
10
115.7999993333
20
119.2
0
VERTEX
8
BOARD_OUTLINE_00
10
50.8
20
119.2
0
VERTEX
8
BOARD_OUTLINE_00
10
50.8
20
76.2
0
SEQEND
0
INSERT
2
SMOOTH_0$2999993333
8
BOARD_OUTLINE_00
10
115.7999993333
20
76.2
0
INSERT
2
SMOOTH_0$2999993333
8
BOARD_OUTLINE_00
10
115.7999993333
20
119.2
0
INSERT
2
SMOOTH_0$2999993333
8
BOARD_OUTLINE_00
10
50.8
20
119.2
0
INSERT
2
SMOOTH_0$2999993333
8
BOARD_OUTLINE_00
10
50.8
20
76.2
0
ENDBLK
999
*** POWERPCB  2DLINE ***
0
BLOCK
2
DRAWING_1
8
0
10
0
20
0
3
DRAWING_1
70
64
0
POLYLINE
8
2D_LINE_26
66
1
40
0.254
41
0.254
0
VERTEX
8
2D_LINE_26
10
0
20
0
0
VERTEX
8
2D_LINE_26
10
0
20
1.397
0
SEQEND
0
INSERT
2
SMOOTH_0$254
8
2D_LINE_26
10
0
20
0
0
INSERT
2
SMOOTH_0$254
8
2D_LINE_26
10
0
20
1.397
0
ENDBLK
0
BLOCK
2
DRAWING_2
8
0
10
0
20
0
3
DRAWING_2
70
64
0
POLYLINE
8
2D_LINE_26
66
1
40
0.254
41
0.254
0
VERTEX
8
2D_LINE_26
10
0
20
0
0
VERTEX
8
2D_LINE_26
10
0
20
1.397
0
SEQEND
0
INSERT
2
SMOOTH_0$254
8
2D_LINE_26
10
0
20
0
0
INSERT
2
SMOOTH_0$254
8
2D_LINE_26
10
0
20
1.397
0
ENDBLK
0
BLOCK
2
DRAWING_3
8
0
10
0
20
0
3
DRAWING_3
70
64
0
POLYLINE
8
2D_LINE_26
66
1
40
0.254
41
0.254
70
1
0
VERTEX
8
2D_LINE_26
10
0
20
0
0
VERTEX
8
2D_LINE_26
10
64.9999993333
20
0
0
VERTEX
8
2D_LINE_26
10
64.9999993333
20
43
0
VERTEX
8
2D_LINE_26
10
0
20
43
0
SEQEND
0
INSERT
2
SMOOTH_0$254
8
2D_LINE_26
10
0
20
0
0
INSERT
2
SMOOTH_0$254
8
2D_LINE_26
10
64.9999993333
20
0
0
INSERT
2
SMOOTH_0$254
8
2D_LINE_26
10
64.9999993333
20
43
0
INSERT
2
SMOOTH_0$254
8
2D_LINE_26
10
0
20
43
0
ENDBLK
0
BLOCK
2
D_4defghi_5
8
0
10
0
20
0
3
D_4defghi_5
70
64
0
POLYLINE
8
DIMENSION7_26
6
TRMIDX_8192
66
1
40
0.0254
41
0.0254
0
VERTEX
8
DIMENSION7_26
10
-6.374
20
0
0
VERTEX
8
DIMENSION7_26
10
-6.374
20
0.0006666667
0
SEQEND
0
POLYLINE
8
DIMENSION7_26
6
TRMIDX_8192
66
1
40
0.0254
41
0.0254
0
VERTEX
8
DIMENSION7_26
10
-6.858
20
-5
0
VERTEX
8
DIMENSION7_26
10
-6.858
20
-4.9993333333
0
SEQEND
0
POLYLINE
8
DIMENSION1_26
6
TRMIDX_8192
66
1
40
0.254
41
0.254
0
VERTEX
8
DIMENSION1_26
10
0
20
0
0
VERTEX
8
DIMENSION1_26
10
0
20
2.5399993333
0
SEQEND
0
POLYLINE
8
DIMENSION2_26
6
TRMIDX_8192
66
1
40
0.254
41
0.254
0
VERTEX
8
DIMENSION2_26
10
0
20
-5
0
VERTEX
8
DIMENSION2_26
10
0
20
-7.54
0
SEQEND
0
POLYLINE
8
DIMENSION3_26
6
TRMIDX_8192
66
1
40
0.254
41
0.254
0
VERTEX
8
DIMENSION3_26
10
-0.5079993333
20
1.5239993333
0
VERTEX
8
DIMENSION3_26
10
0
20
0
0
VERTEX
8
DIMENSION3_26
10
0.508
20
1.5239993333
0
SEQEND
0
POLYLINE
8
DIMENSION4_26
6
TRMIDX_8192
66
1
40
0.254
41
0.254
0
VERTEX
8
DIMENSION4_26
10
-0.508
20
-6.524
0
VERTEX
8
DIMENSION4_26
10
0
20
-5
0
VERTEX
8
DIMENSION4_26
10
0.5079993333
20
-6.524
0
SEQEND
0
POLYLINE
8
DIMENSION5_26
6
TRMIDX_8192
66
1
40
0.254
41
0.254
0
VERTEX
8
DIMENSION5_26
10
-6.12
20
0
0
VERTEX
8
DIMENSION5_26
10
0.254
20
0
0
SEQEND
0
POLYLINE
8
DIMENSION6_26
6
TRMIDX_8192
66
1
40
0.254
41
0.254
0
VERTEX
8
DIMENSION6_26
10
-6.604
20
-5
0
VERTEX
8
DIMENSION6_26
10
0.2539993333
20
-5
0
SEQEND
0
TEXT
8
TEXT_26
10
1.397
20
-1.1838186667
40
1.0668
1
5.00
50
270
41
0.75
7
W0$1524
0
ENDBLK
0
BLOCK
2
D_4defghi_6
8
0
10
0
20
0
3
D_4defghi_6
70
64
0
POLYLINE
8
DIMENSION7_26
6
TRMIDX_8192
66
1
40
0.0254
41
0.0254
0
VERTEX
8
DIMENSION7_26
10
-11.374
20
33.000002
0
VERTEX
8
DIMENSION7_26
10
-11.374
20
33.0006686667
0
SEQEND
0
POLYLINE
8
DIMENSION7_26
6
TRMIDX_8192
66
1
40
0.0254
41
0.0254
0
VERTEX
8
DIMENSION7_26
10
-5.588
20
0.000002
0
VERTEX
8
DIMENSION7_26
10
-5.588
20
0.0006686667
0
SEQEND
0
POLYLINE
8
DIMENSION1_26
6
TRMIDX_8192
66
1
40
0.254
41
0.254
0
VERTEX
8
DIMENSION1_26
10
0
20
33.000002
0
VERTEX
8
DIMENSION1_26
10
0
20
18.451184
0
SEQEND
0
POLYLINE
8
DIMENSION2_26
6
TRMIDX_8192
66
1
40
0.254
41
0.254
0
VERTEX
8
DIMENSION2_26
10
0
20
0.000002
0
VERTEX
8
DIMENSION2_26
10
0
20
14.5488206667
0
SEQEND
0
POLYLINE
8
DIMENSION3_26
6
TRMIDX_8192
66
1
40
0.254
41
0.254
0
VERTEX
8
DIMENSION3_26
10
-0.5079993333
20
31.476002
0
VERTEX
8
DIMENSION3_26
10
0
20
33.000002
0
VERTEX
8
DIMENSION3_26
10
0.508
20
31.476002
0
SEQEND
0
POLYLINE
8
DIMENSION4_26
6
TRMIDX_8192
66
1
40
0.254
41
0.254
0
VERTEX
8
DIMENSION4_26
10
-0.5079993333
20
1.524002
0
VERTEX
8
DIMENSION4_26
10
0
20
0.000002
0
VERTEX
8
DIMENSION4_26
10
0.508
20
1.524002
0
SEQEND
0
POLYLINE
8
DIMENSION5_26
6
TRMIDX_8192
66
1
40
0.254
41
0.254
0
VERTEX
8
DIMENSION5_26
10
-11.12
20
33.000002
0
VERTEX
8
DIMENSION5_26
10
0.254
20
33.000002
0
SEQEND
0
POLYLINE
8
DIMENSION6_26
6
TRMIDX_8192
66
1
40
0.254
41
0.254
0
VERTEX
8
DIMENSION6_26
10
-5.334
20
0.000002
0
VERTEX
8
DIMENSION6_26
10
0.254
20
0.000002
0
SEQEND
0
TEXT
8
TEXT_26
10
-0.5715
20
18.197184
40
1.0668
1
33.00
50
270
41
0.75
7
W0$1524
0
ENDBLK
0
BLOCK
2
D_4defghi_7
8
0
10
0
20
0
3
D_4defghi_7
70
64
0
POLYLINE
8
DIMENSION7_26
6
TRMIDX_8192
66
1
40
0.0254
41
0.0254
0
VERTEX
8
DIMENSION7_26
10
-11.374
20
5
0
VERTEX
8
DIMENSION7_26
10
-11.374
20
5.0006666667
0
SEQEND
0
POLYLINE
8
DIMENSION7_26
6
TRMIDX_8192
66
1
40
0.0254
41
0.0254
0
VERTEX
8
DIMENSION7_26
10
-6.374
20
0
0
VERTEX
8
DIMENSION7_26
10
-6.374
20
0.0006666667
0
SEQEND
0
POLYLINE
8
DIMENSION1_26
6
TRMIDX_8192
66
1
40
0.254
41
0.254
0
VERTEX
8
DIMENSION1_26
10
0
20
5
0
VERTEX
8
DIMENSION1_26
10
0
20
7.54
0
SEQEND
0
POLYLINE
8
DIMENSION2_26
6
TRMIDX_8192
66
1
40
0.254
41
0.254
0
VERTEX
8
DIMENSION2_26
10
0
20
0
0
VERTEX
8
DIMENSION2_26
10
0
20
-2.54
0
SEQEND
0
POLYLINE
8
DIMENSION3_26
6
TRMIDX_8192
66
1
40
0.254
41
0.254
0
VERTEX
8
DIMENSION3_26
10
-0.5079993333
20
6.524
0
VERTEX
8
DIMENSION3_26
10
0
20
5
0
VERTEX
8
DIMENSION3_26
10
0.508
20
6.524
0
SEQEND
0
POLYLINE
8
DIMENSION4_26
6
TRMIDX_8192
66
1
40
0.254
41
0.254
0
VERTEX
8
DIMENSION4_26
10
-0.508
20
-1.524
0
VERTEX
8
DIMENSION4_26
10
0
20
0
0
VERTEX
8
DIMENSION4_26
10
0.5079993333
20
-1.524
0
SEQEND
0
POLYLINE
8
DIMENSION5_26
6
TRMIDX_8192
66
1
40
0.254
41
0.254
0
VERTEX
8
DIMENSION5_26
10
-11.12
20
5
0
VERTEX
8
DIMENSION5_26
10
0.254
20
5
0
SEQEND
0
POLYLINE
8
DIMENSION6_26
6
TRMIDX_8192
66
1
40
0.254
41
0.254
0
VERTEX
8
DIMENSION6_26
10
-6.12
20
0
0
VERTEX
8
DIMENSION6_26
10
0.254
20
0
0
SEQEND
0
TEXT
8
TEXT_26
10
1.397
20
3.8161813333
40
1.0668
1
5.00
50
270
41
0.75
7
W0$1524
0
ENDBLK
0
BLOCK
2
D_4defghi_8
8
0
10
0
20
0
3
D_4defghi_8
70
64
0
POLYLINE
8
DIMENSION7_26
6
TRMIDX_8192
66
1
40
0.0254
41
0.0254
0
VERTEX
8
DIMENSION7_26
10
19.685
20
0
0
VERTEX
8
DIMENSION7_26
10
19.685
20
0.0006666667
0
SEQEND
0
POLYLINE
8
DIMENSION7_26
6
TRMIDX_8192
66
1
40
0.0254
41
0.0254
0
VERTEX
8
DIMENSION7_26
10
17.018
20
24
0
VERTEX
8
DIMENSION7_26
10
17.018
20
24.0006666667
0
SEQEND
0
POLYLINE
8
DIMENSION1_26
6
TRMIDX_8192
66
1
40
0.254
41
0.254
0
VERTEX
8
DIMENSION1_26
10
0
20
0
0
VERTEX
8
DIMENSION1_26
10
0
20
9.6331813333
0
SEQEND
0
POLYLINE
8
DIMENSION2_26
6
TRMIDX_8192
66
1
40
0.254
41
0.254
0
VERTEX
8
DIMENSION2_26
10
0
20
24
0
VERTEX
8
DIMENSION2_26
10
0
20
14.366818
0
SEQEND
0
POLYLINE
8
DIMENSION3_26
6
TRMIDX_8192
66
1
40
0.254
41
0.254
0
VERTEX
8
DIMENSION3_26
10
0.508
20
1.524
0
VERTEX
8
DIMENSION3_26
10
0
20
0
0
VERTEX
8
DIMENSION3_26
10
-0.5079993333
20
1.524
0
SEQEND
0
POLYLINE
8
DIMENSION4_26
6
TRMIDX_8192
66
1
40
0.254
41
0.254
0
VERTEX
8
DIMENSION4_26
10
0.508
20
22.476
0
VERTEX
8
DIMENSION4_26
10
0
20
24
0
VERTEX
8
DIMENSION4_26
10
-0.5079993333
20
22.476
0
SEQEND
0
POLYLINE
8
DIMENSION5_26
6
TRMIDX_8192
66
1
40
0.254
41
0.254
0
VERTEX
8
DIMENSION5_26
10
19.431
20
0
0
VERTEX
8
DIMENSION5_26
10
-0.254
20
0
0
SEQEND
0
POLYLINE
8
DIMENSION6_26
6
TRMIDX_8192
66
1
40
0.254
41
0.254
0
VERTEX
8
DIMENSION6_26
10
16.764
20
24
0
VERTEX
8
DIMENSION6_26
10
-0.2539993333
20
24
0
SEQEND
0
TEXT
8
TEXT_26
10
0.5715
20
9.8871813333
40
1.0668
1
944.88
50
90
41
0.75
7
W0$1524
0
ENDBLK
0
BLOCK
2
D_4defghi_9
8
0
10
0
20
0
3
D_4defghi_9
70
64
0
POLYLINE
8
DIMENSION7_26
6
TRMIDX_8192
66
1
40
0.0254
41
0.0254
0
VERTEX
8
DIMENSION7_26
10
15.621
20
0
0
VERTEX
8
DIMENSION7_26
10
15.621
20
0.0006666667
0
SEQEND
0
POLYLINE
8
DIMENSION7_26
6
TRMIDX_8192
66
1
40
0.0254
41
0.0254
0
VERTEX
8
DIMENSION7_26
10
11.049
20
21.9999986667
0
VERTEX
8
DIMENSION7_26
10
11.049
20
22.0006653333
0
SEQEND
0
POLYLINE
8
DIMENSION1_26
6
TRMIDX_8192
66
1
40
0.254
41
0.254
0
VERTEX
8
DIMENSION1_26
10
0
20
0
0
VERTEX
8
DIMENSION1_26
10
0
20
8.8236806667
0
SEQEND
0
POLYLINE
8
DIMENSION2_26
6
TRMIDX_8192
66
1
40
0.254
41
0.254
0
VERTEX
8
DIMENSION2_26
10
0
20
21.9999986667
0
VERTEX
8
DIMENSION2_26
10
0
20
13.1763173333
0
SEQEND
0
POLYLINE
8
DIMENSION3_26
6
TRMIDX_8192
66
1
40
0.254
41
0.254
0
VERTEX
8
DIMENSION3_26
10
0.508
20
1.524
0
VERTEX
8
DIMENSION3_26
10
0
20
0
0
VERTEX
8
DIMENSION3_26
10
-0.5079993333
20
1.524
0
SEQEND
0
POLYLINE
8
DIMENSION4_26
6
TRMIDX_8192
66
1
40
0.254
41
0.254
0
VERTEX
8
DIMENSION4_26
10
0.508
20
20.4759986667
0
VERTEX
8
DIMENSION4_26
10
0
20
21.9999986667
0
VERTEX
8
DIMENSION4_26
10
-0.5079993333
20
20.4759986667
0
SEQEND
0
POLYLINE
8
DIMENSION5_26
6
TRMIDX_8192
66
1
40
0.254
41
0.254
0
VERTEX
8
DIMENSION5_26
10
15.367
20
0
0
VERTEX
8
DIMENSION5_26
10
-0.254
20
0
0
SEQEND
0
POLYLINE
8
DIMENSION6_26
6
TRMIDX_8192
66
1
40
0.254
41
0.254
0
VERTEX
8
DIMENSION6_26
10
10.795
20
21.9999986667
0
VERTEX
8
DIMENSION6_26
10
-0.2539993333
20
21.9999986667
0
SEQEND
0
TEXT
8
TEXT_26
10
0.5715
20
9.0776806667
40
1.0668
1
866.14
50
90
41
0.75
7
W0$1524
0
ENDBLK
0
BLOCK
2
D_4defghi_10
8
0
10
0
20
0
3
D_4defghi_10
70
64
0
POLYLINE
8
DIMENSION7_26
6
TRMIDX_8192
66
1
40
0.0254
41
0.0254
0
VERTEX
8
DIMENSION7_26
10
8.382
20
0
0
VERTEX
8
DIMENSION7_26
10
8.382
20
0.0006666667
0
SEQEND
0
POLYLINE
8
DIMENSION7_26
6
TRMIDX_8192
66
1
40
0.0254
41
0.0254
0
VERTEX
8
DIMENSION7_26
10
16.1819993333
20
15
0
VERTEX
8
DIMENSION7_26
10
16.1819993333
20
15.0006666667
0
SEQEND
0
POLYLINE
8
DIMENSION1_26
6
TRMIDX_8192
66
1
40
0.254
41
0.254
0
VERTEX
8
DIMENSION1_26
10
0
20
0
0
VERTEX
8
DIMENSION1_26
10
0
20
5.6873633333
0
SEQEND
0
POLYLINE
8
DIMENSION2_26
6
TRMIDX_8192
66
1
40
0.254
41
0.254
0
VERTEX
8
DIMENSION2_26
10
0
20
15
0
VERTEX
8
DIMENSION2_26
10
0
20
9.312636
0
SEQEND
0
POLYLINE
8
DIMENSION3_26
6
TRMIDX_8192
66
1
40
0.254
41
0.254
0
VERTEX
8
DIMENSION3_26
10
0.508
20
1.524
0
VERTEX
8
DIMENSION3_26
10
0
20
0
0
VERTEX
8
DIMENSION3_26
10
-0.5079993333
20
1.524
0
SEQEND
0
POLYLINE
8
DIMENSION4_26
6
TRMIDX_8192
66
1
40
0.254
41
0.254
0
VERTEX
8
DIMENSION4_26
10
0.508
20
13.476
0
VERTEX
8
DIMENSION4_26
10
0
20
15
0
VERTEX
8
DIMENSION4_26
10
-0.5079993333
20
13.476
0
SEQEND
0
POLYLINE
8
DIMENSION5_26
6
TRMIDX_8192
66
1
40
0.254
41
0.254
0
VERTEX
8
DIMENSION5_26
10
8.128
20
0
0
VERTEX
8
DIMENSION5_26
10
-0.254
20
0
0
SEQEND
0
POLYLINE
8
DIMENSION6_26
6
TRMIDX_8192
66
1
40
0.254
41
0.254
0
VERTEX
8
DIMENSION6_26
10
15.9279993333
20
15
0
VERTEX
8
DIMENSION6_26
10
-0.2539993333
20
15
0
SEQEND
0
TEXT
8
TEXT_26
10
0.5715
20
5.9413633333
40
1.0668
1
15.00
50
90
41
0.75
7
W0$1524
0
ENDBLK
0
BLOCK
2
D_4defghi_11
8
0
10
0
20
0
3
D_4defghi_11
70
64
0
POLYLINE
8
DIMENSION7_26
6
TRMIDX_8192
66
1
40
0.0254
41
0.0254
0
VERTEX
8
DIMENSION7_26
10
0
20
13.89
0
VERTEX
8
DIMENSION7_26
10
0
20
13.8906666667
0
SEQEND
0
POLYLINE
8
DIMENSION7_26
6
TRMIDX_8192
66
1
40
0.0254
41
0.0254
0
VERTEX
8
DIMENSION7_26
10
5
20
8.89
0
VERTEX
8
DIMENSION7_26
10
5
20
8.8906666667
0
SEQEND
0
POLYLINE
8
DIMENSION1_26
6
TRMIDX_8192
66
1
40
0.254
41
0.254
0
VERTEX
8
DIMENSION1_26
10
0
20
0
0
VERTEX
8
DIMENSION1_26
10
-2.54
20
0
0
SEQEND
0
POLYLINE
8
DIMENSION2_26
6
TRMIDX_8192
66
1
40
0.254
41
0.254
0
VERTEX
8
DIMENSION2_26
10
5
20
0
0
VERTEX
8
DIMENSION2_26
10
7.54
20
0
0
SEQEND
0
POLYLINE
8
DIMENSION3_26
6
TRMIDX_8192
66
1
40
0.254
41
0.254
0
VERTEX
8
DIMENSION3_26
10
-1.524
20
-0.5079993333
0
VERTEX
8
DIMENSION3_26
10
0
20
0
0
VERTEX
8
DIMENSION3_26
10
-1.524
20
0.508
0
SEQEND
0
POLYLINE
8
DIMENSION4_26
6
TRMIDX_8192
66
1
40
0.254
41
0.254
0
VERTEX
8
DIMENSION4_26
10
6.524
20
-0.508
0
VERTEX
8
DIMENSION4_26
10
5
20
0
0
VERTEX
8
DIMENSION4_26
10
6.524
20
0.5079993333
0
SEQEND
0
POLYLINE
8
DIMENSION5_26
6
TRMIDX_8192
66
1
40
0.254
41
0.254
0
VERTEX
8
DIMENSION5_26
10
0
20
13.636
0
VERTEX
8
DIMENSION5_26
10
0
20
-0.254
0
SEQEND
0
POLYLINE
8
DIMENSION6_26
6
TRMIDX_8192
66
1
40
0.254
41
0.254
0
VERTEX
8
DIMENSION6_26
10
5
20
8.636
0
VERTEX
8
DIMENSION6_26
10
5
20
-0.254
0
SEQEND
0
TEXT
8
TEXT_26
10
1.183818
20
-2.54
40
1.0668
1
5.00
41
0.75
7
W0$1524
0
ENDBLK
0
BLOCK
2
D_4defghi_12
8
0
10
0
20
0
3
D_4defghi_12
70
64
0
POLYLINE
8
DIMENSION7_26
6
TRMIDX_8192
66
1
40
0.0254
41
0.0254
0
VERTEX
8
DIMENSION7_26
10
0.000002
20
9.525
0
VERTEX
8
DIMENSION7_26
10
0.000002
20
9.5256666667
0
SEQEND
0
POLYLINE
8
DIMENSION7_26
6
TRMIDX_8192
66
1
40
0.0254
41
0.0254
0
VERTEX
8
DIMENSION7_26
10
55.0000013333
20
13.763
0
VERTEX
8
DIMENSION7_26
10
55.0000013333
20
13.7636666667
0
SEQEND
0
POLYLINE
8
DIMENSION1_26
6
TRMIDX_8192
66
1
40
0.254
41
0.254
0
VERTEX
8
DIMENSION1_26
10
0.000002
20
0
0
VERTEX
8
DIMENSION1_26
10
25.5141833333
20
0
0
SEQEND
0
POLYLINE
8
DIMENSION2_26
6
TRMIDX_8192
66
1
40
0.254
41
0.254
0
VERTEX
8
DIMENSION2_26
10
55.0000013333
20
0
0
VERTEX
8
DIMENSION2_26
10
29.48582
20
0
0
SEQEND
0
POLYLINE
8
DIMENSION3_26
6
TRMIDX_8192
66
1
40
0.254
41
0.254
0
VERTEX
8
DIMENSION3_26
10
1.524002
20
-0.508
0
VERTEX
8
DIMENSION3_26
10
0.000002
20
0
0
VERTEX
8
DIMENSION3_26
10
1.524002
20
0.5079993333
0
SEQEND
0
POLYLINE
8
DIMENSION4_26
6
TRMIDX_8192
66
1
40
0.254
41
0.254
0
VERTEX
8
DIMENSION4_26
10
53.4760013333
20
-0.508
0
VERTEX
8
DIMENSION4_26
10
55.0000013333
20
0
0
VERTEX
8
DIMENSION4_26
10
53.4760013333
20
0.5079993333
0
SEQEND
0
POLYLINE
8
DIMENSION5_26
6
TRMIDX_8192
66
1
40
0.254
41
0.254
0
VERTEX
8
DIMENSION5_26
10
0.000002
20
9.271
0
VERTEX
8
DIMENSION5_26
10
0.000002
20
-0.254
0
SEQEND
0
POLYLINE
8
DIMENSION6_26
6
TRMIDX_8192
66
1
40
0.254
41
0.254
0
VERTEX
8
DIMENSION6_26
10
55.0000013333
20
13.509
0
VERTEX
8
DIMENSION6_26
10
55.0000013333
20
-0.254
0
SEQEND
0
TEXT
8
TEXT_26
10
25.768184
20
-0.5715006667
40
1.0668
1
55.00
41
0.75
7
W0$1524
0
ENDBLK
0
BLOCK
2
D_4defghi_13
8
0
10
0
20
0
3
D_4defghi_13
70
64
0
POLYLINE
8
DIMENSION7_26
6
TRMIDX_8192
66
1
40
0.0254
41
0.0254
0
VERTEX
8
DIMENSION7_26
10
0
20
8.89
0
VERTEX
8
DIMENSION7_26
10
0
20
8.8906666667
0
SEQEND
0
POLYLINE
8
DIMENSION7_26
6
TRMIDX_8192
66
1
40
0.0254
41
0.0254
0
VERTEX
8
DIMENSION7_26
10
5
20
13.89
0
VERTEX
8
DIMENSION7_26
10
5
20
13.8906666667
0
SEQEND
0
POLYLINE
8
DIMENSION1_26
6
TRMIDX_8192
66
1
40
0.254
41
0.254
0
VERTEX
8
DIMENSION1_26
10
0
20
0
0
VERTEX
8
DIMENSION1_26
10
-2.54
20
0
0
SEQEND
0
POLYLINE
8
DIMENSION2_26
6
TRMIDX_8192
66
1
40
0.254
41
0.254
0
VERTEX
8
DIMENSION2_26
10
5
20
0
0
VERTEX
8
DIMENSION2_26
10
7.54
20
0
0
SEQEND
0
POLYLINE
8
DIMENSION3_26
6
TRMIDX_8192
66
1
40
0.254
41
0.254
0
VERTEX
8
DIMENSION3_26
10
-1.524
20
-0.5079993333
0
VERTEX
8
DIMENSION3_26
10
0
20
0
0
VERTEX
8
DIMENSION3_26
10
-1.524
20
0.508
0
SEQEND
0
POLYLINE
8
DIMENSION4_26
6
TRMIDX_8192
66
1
40
0.254
41
0.254
0
VERTEX
8
DIMENSION4_26
10
6.524
20
-0.508
0
VERTEX
8
DIMENSION4_26
10
5
20
0
0
VERTEX
8
DIMENSION4_26
10
6.524
20
0.5079993333
0
SEQEND
0
POLYLINE
8
DIMENSION5_26
6
TRMIDX_8192
66
1
40
0.254
41
0.254
0
VERTEX
8
DIMENSION5_26
10
0
20
8.636
0
VERTEX
8
DIMENSION5_26
10
0
20
-0.254
0
SEQEND
0
POLYLINE
8
DIMENSION6_26
6
TRMIDX_8192
66
1
40
0.254
41
0.254
0
VERTEX
8
DIMENSION6_26
10
5
20
13.636
0
VERTEX
8
DIMENSION6_26
10
5
20
-0.254
0
SEQEND
0
TEXT
8
TEXT_26
10
1.183818
20
-2.54
40
1.0668
1
5.00
41
0.75
7
W0$1524
0
ENDBLK
999
*** POWERPCB  COMPONENT ***
0
BLOCK
2
PART_TOP_0
8
0
10
0
20
0
3
PART_TOP_0
70
64
0
INSERT
2
SYM_TOP_4
8
0
10
0
20
0
0
INSERT
2
PKG_0
8
0
10
0
20
0
0
TEXT
8
LABEL_INFO
10
4.064
20
-4.699
40
0.4445
1
0 324000000 0 0 0 1
50
180
41
0.75
7
W0$1016
0
TEXT
8
LABEL_ATTRIBUTE
10
4.064
20
-4.699
40
0.4445
1
Ref.Des.
50
180
41
0.75
7
W0$1016
0
TEXT
8
PART_NAME_26
10
4.064
20
-4.699
40
0.4445
1
C1
50
180
41
0.75
7
W0$1016
0
TEXT
8
LABEL_INFO
10
4.0259
20
7.8867
40
0.4445
1
0 324000000 0 0 0 0
50
180
41
0.75
7
W0$1016
0
TEXT
8
LABEL_ATTRIBUTE
10
4.0259
20
7.8867
40
0.4445
1
Comment
50
180
41
0.75
7
W0$1016
0
TEXT
8
ATTRIBUTE_26
10
4.0259
20
7.8867
40
0.4445
1
100uF/50V
50
180
41
0.75
7
W0$1016
0
TEXT
8
PART_TYPE_TOP
10
4.0259
20
7.2517
40
0.4445
1
CAP_DUP2
50
180
41
0.75
7
W0$1016
0
TEXT
8
PART_INFO
10
4.0259
20
6.6167
40
0.4445
1
000100
50
180
41
0.75
7
W0$1016
0
TEXT
8
PART_PTS
10
4.0259
20
5.9817
40
0.4445
1
1 2 
50
180
41
0.75
7
W0$1016
0
ENDBLK
0
BLOCK
2
PART_TOP_1
8
0
10
0
20
0
3
PART_TOP_1
70
64
0
INSERT
2
SYM_TOP_4
8
0
10
0
20
0
0
INSERT
2
PKG_0
8
0
10
0
20
0
0
TEXT
8
LABEL_INFO
10
4.064
20
-4.572
40
0.4445
1
0 324000000 0 0 0 1
50
180
41
0.75
7
W0$1016
0
TEXT
8
LABEL_ATTRIBUTE
10
4.064
20
-4.572
40
0.4445
1
Ref.Des.
50
180
41
0.75
7
W0$1016
0
TEXT
8
PART_NAME_26
10
4.064
20
-4.572
40
0.4445
1
C2
50
180
41
0.75
7
W0$1016
0
TEXT
8
LABEL_INFO
10
4.0259
20
7.8867
40
0.4445
1
0 324000000 0 0 0 0
50
180
41
0.75
7
W0$1016
0
TEXT
8
LABEL_ATTRIBUTE
10
4.0259
20
7.8867
40
0.4445
1
Comment
50
180
41
0.75
7
W0$1016
0
TEXT
8
ATTRIBUTE_26
10
4.0259
20
7.8867
40
0.4445
1
100uF/50V
50
180
41
0.75
7
W0$1016
0
TEXT
8
PART_TYPE_TOP
10
4.0259
20
7.2517
40
0.4445
1
CAP_DUP2
50
180
41
0.75
7
W0$1016
0
TEXT
8
PART_INFO
10
4.0259
20
6.6167
40
0.4445
1
000100
50
180
41
0.75
7
W0$1016
0
TEXT
8
PART_PTS
10
4.0259
20
5.9817
40
0.4445
1
1 2 
50
180
41
0.75
7
W0$1016
0
ENDBLK
0
BLOCK
2
PART_TOP_2
8
0
10
0
20
0
3
PART_TOP_2
70
64
0
INSERT
2
SYM_TOP_5
8
0
10
0
20
0
0
INSERT
2
PKG_1
8
0
10
0
20
0
0
TEXT
8
LABEL_INFO
10
3.429
20
-0.254
40
0.4445
1
0 324000000 0 0 0 1
50
180
41
0.75
7
W0$1016
0
TEXT
8
LABEL_ATTRIBUTE
10
3.429
20
-0.254
40
0.4445
1
Ref.Des.
50
180
41
0.75
7
W0$1016
0
TEXT
8
PART_NAME_26
10
3.429
20
-0.254
40
0.4445
1
C3
50
180
41
0.75
7
W0$1016
0
TEXT
8
LABEL_INFO
10
-3.1115
20
1.5875
40
0.4445
1
0 486000000 0 0 0 0
50
270
41
0.75
7
W0$1016
0
TEXT
8
LABEL_ATTRIBUTE
10
-3.1115
20
1.5875
40
0.4445
1
Comment
50
270
41
0.75
7
W0$1016
0
TEXT
8
ATTRIBUTE_26
10
-3.1115
20
1.5875
40
0.4445
1
100p
50
270
41
0.75
7
W0$1016
0
TEXT
8
PART_TYPE_TOP
10
-3.1115
20
0.9525
40
0.4445
1
CAP_NP_DUP1
50
270
41
0.75
7
W0$1016
0
TEXT
8
PART_INFO
10
-3.1115
20
0.3175
40
0.4445
1
000100
50
270
41
0.75
7
W0$1016
0
TEXT
8
PART_PTS
10
-3.1115
20
-0.3175
40
0.4445
1
1 2 
50
270
41
0.75
7
W0$1016
0
ENDBLK
0
BLOCK
2
PART_TOP_3
8
0
10
0
20
0
3
PART_TOP_3
70
64
0
INSERT
2
SYM_TOP_5
8
0
10
0
20
0
0
INSERT
2
PKG_1
8
0
10
0
20
0
0
TEXT
8
LABEL_INFO
10
3.429
20
-0.508
40
0.4445
1
0 324000000 0 0 0 1
50
180
41
0.75
7
W0$1016
0
TEXT
8
LABEL_ATTRIBUTE
10
3.429
20
-0.508
40
0.4445
1
Ref.Des.
50
180
41
0.75
7
W0$1016
0
TEXT
8
PART_NAME_26
10
3.429
20
-0.508
40
0.4445
1
C4
50
180
41
0.75
7
W0$1016
0
TEXT
8
LABEL_INFO
10
-3.1115
20
1.5875
40
0.4445
1
0 486000000 0 0 0 0
50
270
41
0.75
7
W0$1016
0
TEXT
8
LABEL_ATTRIBUTE
10
-3.1115
20
1.5875
40
0.4445
1
Comment
50
270
41
0.75
7
W0$1016
0
TEXT
8
ATTRIBUTE_26
10
-3.1115
20
1.5875
40
0.4445
1
10nF
50
270
41
0.75
7
W0$1016
0
TEXT
8
PART_TYPE_TOP
10
-3.1115
20
0.9525
40
0.4445
1
CAP_NP_DUP1
50
270
41
0.75
7
W0$1016
0
TEXT
8
PART_INFO
10
-3.1115
20
0.3175
40
0.4445
1
000100
50
270
41
0.75
7
W0$1016
0
TEXT
8
PART_PTS
10
-3.1115
20
-0.3175
40
0.4445
1
1 2 
50
270
41
0.75
7
W0$1016
0
ENDBLK
0
BLOCK
2
PART_TOP_4
8
0
10
0
20
0
3
PART_TOP_4
70
64
0
INSERT
2
SYM_TOP_5
8
0
10
0
20
0
0
INSERT
2
PKG_1
8
0
10
0
20
0
0
TEXT
8
LABEL_INFO
10
1.27
20
-1.143
40
0.4445
1
0 324000000 0 0 0 1
50
180
41
0.75
7
W0$1016
0
TEXT
8
LABEL_ATTRIBUTE
10
1.27
20
-1.143
40
0.4445
1
Ref.Des.
50
180
41
0.75
7
W0$1016
0
TEXT
8
PART_NAME_26
10
1.27
20
-1.143
40
0.4445
1
C5
50
180
41
0.75
7
W0$1016
0
TEXT
8
LABEL_INFO
10
-3.1115
20
1.5875
40
0.4445
1
0 486000000 0 0 0 0
50
270
41
0.75
7
W0$1016
0
TEXT
8
LABEL_ATTRIBUTE
10
-3.1115
20
1.5875
40
0.4445
1
Comment
50
270
41
0.75
7
W0$1016
0
TEXT
8
ATTRIBUTE_26
10
-3.1115
20
1.5875
40
0.4445
1
10nF
50
270
41
0.75
7
W0$1016
0
TEXT
8
PART_TYPE_TOP
10
-3.1115
20
0.9525
40
0.4445
1
CAP_NP_DUP1
50
270
41
0.75
7
W0$1016
0
TEXT
8
PART_INFO
10
-3.1115
20
0.3175
40
0.4445
1
000100
50
270
41
0.75
7
W0$1016
0
TEXT
8
PART_PTS
10
-3.1115
20
-0.3175
40
0.4445
1
1 2 
50
270
41
0.75
7
W0$1016
0
ENDBLK
0
BLOCK
2
PART_TOP_5
8
0
10
0
20
0
3
PART_TOP_5
70
64
0
INSERT
2
SYM_TOP_4
8
0
10
0
20
0
0
INSERT
2
PKG_0
8
0
10
0
20
0
0
TEXT
8
LABEL_INFO
10
3.937
20
-4.699
40
0.4445
1
0 324000000 0 0 0 1
50
180
41
0.75
7
W0$1016
0
TEXT
8
LABEL_ATTRIBUTE
10
3.937
20
-4.699
40
0.4445
1
Ref.Des.
50
180
41
0.75
7
W0$1016
0
TEXT
8
PART_NAME_26
10
3.937
20
-4.699
40
0.4445
1
C6
50
180
41
0.75
7
W0$1016
0
TEXT
8
LABEL_INFO
10
4.0259
20
7.8867
40
0.4445
1
0 324000000 0 0 0 0
50
180
41
0.75
7
W0$1016
0
TEXT
8
LABEL_ATTRIBUTE
10
4.0259
20
7.8867
40
0.4445
1
Comment
50
180
41
0.75
7
W0$1016
0
TEXT
8
ATTRIBUTE_26
10
4.0259
20
7.8867
40
0.4445
1
220uF/25V
50
180
41
0.75
7
W0$1016
0
TEXT
8
PART_TYPE_TOP
10
4.0259
20
7.2517
40
0.4445
1
CAP_DUP2
50
180
41
0.75
7
W0$1016
0
TEXT
8
PART_INFO
10
4.0259
20
6.6167
40
0.4445
1
000100
50
180
41
0.75
7
W0$1016
0
TEXT
8
PART_PTS
10
4.0259
20
5.9817
40
0.4445
1
1 2 
50
180
41
0.75
7
W0$1016
0
ENDBLK
0
BLOCK
2
PART_TOP_6
8
0
10
0
20
0
3
PART_TOP_6
70
64
0
INSERT
2
SYM_TOP_4
8
0
10
0
20
0
0
INSERT
2
PKG_0
8
0
10
0
20
0
0
TEXT
8
LABEL_INFO
10
4.064
20
-4.699
40
0.4445
1
0 324000000 0 0 0 1
50
180
41
0.75
7
W0$1016
0
TEXT
8
LABEL_ATTRIBUTE
10
4.064
20
-4.699
40
0.4445
1
Ref.Des.
50
180
41
0.75
7
W0$1016
0
TEXT
8
PART_NAME_26
10
4.064
20
-4.699
40
0.4445
1
C7
50
180
41
0.75
7
W0$1016
0
TEXT
8
LABEL_INFO
10
4.0259
20
7.8867
40
0.4445
1
0 324000000 0 0 0 0
50
180
41
0.75
7
W0$1016
0
TEXT
8
LABEL_ATTRIBUTE
10
4.0259
20
7.8867
40
0.4445
1
Comment
50
180
41
0.75
7
W0$1016
0
TEXT
8
ATTRIBUTE_26
10
4.0259
20
7.8867
40
0.4445
1
220uF/25V
50
180
41
0.75
7
W0$1016
0
TEXT
8
PART_TYPE_TOP
10
4.0259
20
7.2517
40
0.4445
1
CAP_DUP2
50
180
41
0.75
7
W0$1016
0
TEXT
8
PART_INFO
10
4.0259
20
6.6167
40
0.4445
1
000100
50
180
41
0.75
7
W0$1016
0
TEXT
8
PART_PTS
10
4.0259
20
5.9817
40
0.4445
1
1 2 
50
180
41
0.75
7
W0$1016
0
ENDBLK
0
BLOCK
2
PART_TOP_7
8
0
10
0
20
0
3
PART_TOP_7
70
64
0
INSERT
2
SYM_TOP_5
8
0
10
0
20
0
0
INSERT
2
PKG_2
8
0
10
0
20
0
0
TEXT
8
LABEL_INFO
10
3.175
20
3.175
40
0.4445
1
0 324000000 0 0 0 1
50
180
41
0.75
7
W0$1016
0
TEXT
8
LABEL_ATTRIBUTE
10
3.175
20
3.175
40
0.4445
1
Ref.Des.
50
180
41
0.75
7
W0$1016
0
TEXT
8
PART_NAME_26
10
3.175
20
3.175
40
0.4445
1
C8
50
180
41
0.75
7
W0$1016
0
TEXT
8
LABEL_INFO
10
1.5875
20
3.1115
40
0.4445
1
0 324000000 0 0 0 0
50
180
41
0.75
7
W0$1016
0
TEXT
8
LABEL_ATTRIBUTE
10
1.5875
20
3.1115
40
0.4445
1
Comment
50
180
41
0.75
7
W0$1016
0
TEXT
8
ATTRIBUTE_26
10
1.5875
20
3.1115
40
0.4445
1
0.1uF
50
180
41
0.75
7
W0$1016
0
TEXT
8
PART_TYPE_TOP
10
1.5875
20
2.4765
40
0.4445
1
CAP_NP
50
180
41
0.75
7
W0$1016
0
TEXT
8
PART_INFO
10
1.5875
20
1.8415
40
0.4445
1
000100
50
180
41
0.75
7
W0$1016
0
TEXT
8
PART_PTS
10
1.5875
20
1.2065
40
0.4445
1
1 2 
50
180
41
0.75
7
W0$1016
0
ENDBLK
0
BLOCK
2
PART_TOP_8
8
0
10
0
20
0
3
PART_TOP_8
70
64
0
INSERT
2
SYM_TOP_6
8
0
10
0
20
0
0
INSERT
2
PKG_3
8
0
10
0
20
0
0
TEXT
8
LABEL_INFO
10
-7.874
20
-0.889
40
0.4445
1
0 0 0 0 0 1
41
0.75
7
W0$1016
0
TEXT
8
LABEL_ATTRIBUTE
10
-7.874
20
-0.889
40
0.4445
1
Ref.Des.
41
0.75
7
W0$1016
0
TEXT
8
PART_NAME_26
10
-7.874
20
-0.889
40
0.4445
1
CN1
41
0.75
7
W0$1016
0
TEXT
8
LABEL_INFO
10
-5.9055
20
-7.9375
40
0.4445
1
0 0 0 0 0 0
41
0.75
7
W0$1016
0
TEXT
8
LABEL_ATTRIBUTE
10
-5.9055
20
-7.9375
40
0.4445
1
Comment
41
0.75
7
W0$1016
0
TEXT
8
ATTRIBUTE_26
10
-5.9055
20
-7.9375
40
0.4445
1
SMW200-04P
41
0.75
7
W0$1016
0
TEXT
8
PART_TYPE_TOP
10
-5.9055
20
-8.5725
40
0.4445
1
HEADER_4
41
0.75
7
W0$1016
0
TEXT
8
PART_INFO
10
-5.9055
20
-9.2075
40
0.4445
1
000110
41
0.75
7
W0$1016
0
TEXT
8
PART_PTS
10
-5.9055
20
-9.8425
40
0.4445
1
1 2 3 4 5 6 
41
0.75
7
W0$1016
0
ENDBLK
0
BLOCK
2
PART_TOP_9
8
0
10
0
20
0
3
PART_TOP_9
70
64
0
INSERT
2
SYM_TOP_7
8
0
10
0
20
0
0
INSERT
2
PKG_4
8
0
10
0
20
0
0
TEXT
8
LABEL_INFO
10
-9.271
20
2.54
40
0.4445
1
0 0 0 0 0 1
41
0.75
7
W0$1016
0
TEXT
8
LABEL_ATTRIBUTE
10
-9.271
20
2.54
40
0.4445
1
Ref.Des.
41
0.75
7
W0$1016
0
TEXT
8
PART_NAME_26
10
-9.271
20
2.54
40
0.4445
1
D1
41
0.75
7
W0$1016
0
TEXT
8
LABEL_INFO
10
-2.9591
20
-10.7823
40
0.4445
1
0 0 0 0 0 0
41
0.75
7
W0$1016
0
TEXT
8
LABEL_ATTRIBUTE
10
-2.9591
20
-10.7823
40
0.4445
1
Comment
41
0.75
7
W0$1016
0
TEXT
8
ATTRIBUTE_26
10
-2.9591
20
-10.7823
40
0.4445
1
MBRS340
41
0.75
7
W0$1016
0
TEXT
8
PART_TYPE_TOP
10
-2.9591
20
-11.4173
40
0.4445
1
DIODE_SCHOTTKY
41
0.75
7
W0$1016
0
TEXT
8
PART_INFO
10
-2.9591
20
-12.0523
40
0.4445
1
000100
41
0.75
7
W0$1016
0
TEXT
8
PART_PTS
10
-2.9591
20
-12.6873
40
0.4445
1
1 2 
41
0.75
7
W0$1016
0
ENDBLK
0
BLOCK
2
PART_TOP_10
8
0
10
0
20
0
3
PART_TOP_10
70
64
0
INSERT
2
SYM_TOP_8
8
0
10
0
20
0
0
INSERT
2
PKG_5
8
0
10
0
20
0
0
TEXT
8
LABEL_INFO
10
-0.889
20
6.11
40
0.4445
1
0 324000000 0 0 0 1
50
180
41
0.75
7
W0$1016
0
TEXT
8
LABEL_ATTRIBUTE
10
-0.889
20
6.11
40
0.4445
1
Ref.Des.
50
180
41
0.75
7
W0$1016
0
TEXT
8
PART_NAME_26
10
-0.889
20
6.11
40
0.4445
1
J1
50
180
41
0.75
7
W0$1016
0
TEXT
8
LABEL_INFO
10
6.1087
20
17.4625
40
0.4445
1
0 324000000 0 0 0 0
50
180
41
0.75
7
W0$1016
0
TEXT
8
LABEL_ATTRIBUTE
10
6.1087
20
17.4625
40
0.4445
1
Comment
50
180
41
0.75
7
W0$1016
0
TEXT
8
ATTRIBUTE_26
10
6.1087
20
17.4625
40
0.4445
1
DC-JACK
50
180
41
0.75
7
W0$1016
0
TEXT
8
PART_TYPE_TOP
10
6.1087
20
16.8275
40
0.4445
1
CONN-POWER_2
50
180
41
0.75
7
W0$1016
0
TEXT
8
PART_INFO
10
6.1087
20
16.1925
40
0.4445
1
000100
50
180
41
0.75
7
W0$1016
0
TEXT
8
PART_PTS
10
6.1087
20
15.5575
40
0.4445
1
1 2 3 
50
180
41
0.75
7
W0$1016
0
ENDBLK
0
BLOCK
2
PART_TOP_11
8
0
10
0
20
0
3
PART_TOP_11
70
64
0
INSERT
2
SYM_TOP_9
8
0
10
0
20
0
0
INSERT
2
PKG_6
8
0
10
0
20
0
0
TEXT
8
LABEL_INFO
10
-7.8450006667
20
5.969
40
0.4445
1
0 162000000 0 0 0 1
50
90
41
0.75
7
W0$1016
0
TEXT
8
LABEL_ATTRIBUTE
10
-7.8450006667
20
5.969
40
0.4445
1
Ref.Des.
50
90
41
0.75
7
W0$1016
0
TEXT
8
PART_NAME_26
10
-7.8450006667
20
5.969
40
0.4445
1
J2
50
90
41
0.75
7
W0$1016
0
TEXT
8
LABEL_INFO
10
2.3495
20
-7.3279
40
0.4445
1
0 162000000 0 0 0 0
50
90
41
0.75
7
W0$1016
0
TEXT
8
LABEL_ATTRIBUTE
10
2.3495
20
-7.3279
40
0.4445
1
Comment
50
90
41
0.75
7
W0$1016
0
TEXT
8
ATTRIBUTE_26
10
2.3495
20
-7.3279
40
0.4445
1
24V POWER JACK
50
90
41
0.75
7
W0$1016
0
TEXT
8
PART_TYPE_TOP
10
2.3495
20
-7.9629
40
0.4445
1
HEADER_7
50
90
41
0.75
7
W0$1016
0
TEXT
8
PART_INFO
10
2.3495
20
-8.5979
40
0.4445
1
000100
50
90
41
0.75
7
W0$1016
0
TEXT
8
PART_PTS
10
2.3495
20
-9.2329
40
0.4445
1
1 2 3 4 5 6 7 
50
90
41
0.75
7
W0$1016
0
ENDBLK
0
BLOCK
2
PART_TOP_12
8
0
10
0
20
0
3
PART_TOP_12
70
64
0
INSERT
2
SYM_TOP_9
8
0
10
0
20
0
0
INSERT
2
PKG_6
8
0
10
0
20
0
0
TEXT
8
LABEL_INFO
10
-7.8769993333
20
5.969
40
0.4445
1
0 162000000 0 0 0 1
50
90
41
0.75
7
W0$1016
0
TEXT
8
LABEL_ATTRIBUTE
10
-7.8769993333
20
5.969
40
0.4445
1
Ref.Des.
50
90
41
0.75
7
W0$1016
0
TEXT
8
PART_NAME_26
10
-7.8769993333
20
5.969
40
0.4445
1
J3
50
90
41
0.75
7
W0$1016
0
TEXT
8
LABEL_INFO
10
2.3495
20
-7.3279
40
0.4445
1
0 162000000 0 0 0 0
50
90
41
0.75
7
W0$1016
0
TEXT
8
LABEL_ATTRIBUTE
10
2.3495
20
-7.3279
40
0.4445
1
Comment
50
90
41
0.75
7
W0$1016
0
TEXT
8
ATTRIBUTE_26
10
2.3495
20
-7.3279
40
0.4445
1
24V POWER JACK
50
90
41
0.75
7
W0$1016
0
TEXT
8
PART_TYPE_TOP
10
2.3495
20
-7.9629
40
0.4445
1
HEADER_7
50
90
41
0.75
7
W0$1016
0
TEXT
8
PART_INFO
10
2.3495
20
-8.5979
40
0.4445
1
000100
50
90
41
0.75
7
W0$1016
0
TEXT
8
PART_PTS
10
2.3495
20
-9.2329
40
0.4445
1
1 2 3 4 5 6 7 
50
90
41
0.75
7
W0$1016
0
ENDBLK
0
BLOCK
2
PART_TOP_13
8
0
10
0
20
0
3
PART_TOP_13
70
64
0
INSERT
2
SYM_TOP_10
8
0
10
0
20
0
0
INSERT
2
PKG_7
8
0
10
0
20
0
0
TEXT
8
LABEL_INFO
10
6.604
20
5.715
40
0.4445
1
0 486000000 0 0 0 1
50
270
41
0.75
7
W0$1016
0
TEXT
8
LABEL_ATTRIBUTE
10
6.604
20
5.715
40
0.4445
1
Ref.Des.
50
270
41
0.75
7
W0$1016
0
TEXT
8
PART_NAME_26
10
6.604
20
5.715
40
0.4445
1
L1
50
270
41
0.75
7
W0$1016
0
TEXT
8
LABEL_INFO
10
-10.3759
20
5.8547
40
0.4445
1
0 486000000 0 0 0 0
50
270
41
0.75
7
W0$1016
0
TEXT
8
LABEL_ATTRIBUTE
10
-10.3759
20
5.8547
40
0.4445
1
Comment
50
270
41
0.75
7
W0$1016
0
TEXT
8
ATTRIBUTE_26
10
-10.3759
20
5.8547
40
0.4445
1
22uH
50
270
41
0.75
7
W0$1016
0
TEXT
8
PART_TYPE_TOP
10
-10.3759
20
5.2197
40
0.4445
1
INDUCTOR_0
50
270
41
0.75
7
W0$1016
0
TEXT
8
PART_INFO
10
-10.3759
20
4.5847
40
0.4445
1
000100
50
270
41
0.75
7
W0$1016
0
TEXT
8
PART_PTS
10
-10.3759
20
3.9497
40
0.4445
1
1 2 
50
270
41
0.75
7
W0$1016
0
ENDBLK
0
BLOCK
2
PART_TOP_14
8
0
10
0
20
0
3
PART_TOP_14
70
64
0
INSERT
2
SYM_TOP_11
8
0
10
0
20
0
0
INSERT
2
PKG_8
8
0
10
0
20
0
0
TEXT
8
LABEL_INFO
10
-0.381
20
-1.905
40
0.4445
1
0 0 0 0 0 1
41
0.75
7
W0$1016
0
TEXT
8
LABEL_ATTRIBUTE
10
-0.381
20
-1.905
40
0.4445
1
Ref.Des.
41
0.75
7
W0$1016
0
TEXT
8
PART_NAME_26
10
-0.381
20
-1.905
40
0.4445
1
R1
41
0.75
7
W0$1016
0
TEXT
8
LABEL_INFO
10
3.1369
20
-1.4097
40
0.4445
1
0 162000000 0 0 0 0
50
90
41
0.75
7
W0$1016
0
TEXT
8
LABEL_ATTRIBUTE
10
3.1369
20
-1.4097
40
0.4445
1
Comment
50
90
41
0.75
7
W0$1016
0
TEXT
8
ATTRIBUTE_26
10
3.1369
20
-1.4097
40
0.4445
1
10K
50
90
41
0.75
7
W0$1016
0
TEXT
8
PART_TYPE_TOP
10
3.1369
20
-2.0447
40
0.4445
1
R_DUP5
50
90
41
0.75
7
W0$1016
0
TEXT
8
PART_INFO
10
3.1369
20
-2.6797
40
0.4445
1
000100
50
90
41
0.75
7
W0$1016
0
TEXT
8
PART_PTS
10
3.1369
20
-3.3147
40
0.4445
1
1 2 
50
90
41
0.75
7
W0$1016
0
ENDBLK
0
BLOCK
2
PART_TOP_15
8
0
10
0
20
0
3
PART_TOP_15
70
64
0
INSERT
2
SYM_TOP_11
8
0
10
0
20
0
0
INSERT
2
PKG_8
8
0
10
0
20
0
0
TEXT
8
LABEL_INFO
10
3.175
20
2.286
40
0.4445
1
0 324000000 0 0 0 1
50
180
41
0.75
7
W0$1016
0
TEXT
8
LABEL_ATTRIBUTE
10
3.175
20
2.286
40
0.4445
1
Ref.Des.
50
180
41
0.75
7
W0$1016
0
TEXT
8
PART_NAME_26
10
3.175
20
2.286
40
0.4445
1
R2
50
180
41
0.75
7
W0$1016
0
TEXT
8
LABEL_INFO
10
1.4097
20
3.1369
40
0.4445
1
0 324000000 0 0 0 0
50
180
41
0.75
7
W0$1016
0
TEXT
8
LABEL_ATTRIBUTE
10
1.4097
20
3.1369
40
0.4445
1
Comment
50
180
41
0.75
7
W0$1016
0
TEXT
8
ATTRIBUTE_26
10
1.4097
20
3.1369
40
0.4445
1
30.9k
50
180
41
0.75
7
W0$1016
0
TEXT
8
PART_TYPE_TOP
10
1.4097
20
2.5019
40
0.4445
1
R_DUP5
50
180
41
0.75
7
W0$1016
0
TEXT
8
PART_INFO
10
1.4097
20
1.8669
40
0.4445
1
000100
50
180
41
0.75
7
W0$1016
0
TEXT
8
PART_PTS
10
1.4097
20
1.2319
40
0.4445
1
1 2 
50
180
41
0.75
7
W0$1016
0
ENDBLK
0
BLOCK
2
PART_TOP_16
8
0
10
0
20
0
3
PART_TOP_16
70
64
0
INSERT
2
SYM_TOP_11
8
0
10
0
20
0
0
INSERT
2
PKG_8
8
0
10
0
20
0
0
TEXT
8
LABEL_INFO
10
-3.175
20
-1.397
40
0.4445
1
0 0 0 0 0 1
41
0.75
7
W0$1016
0
TEXT
8
LABEL_ATTRIBUTE
10
-3.175
20
-1.397
40
0.4445
1
Ref.Des.
41
0.75
7
W0$1016
0
TEXT
8
PART_NAME_26
10
-3.175
20
-1.397
40
0.4445
1
R3
41
0.75
7
W0$1016
0
TEXT
8
LABEL_INFO
10
-1.4097
20
-3.1369
40
0.4445
1
0 0 0 0 0 0
41
0.75
7
W0$1016
0
TEXT
8
LABEL_ATTRIBUTE
10
-1.4097
20
-3.1369
40
0.4445
1
Comment
41
0.75
7
W0$1016
0
TEXT
8
ATTRIBUTE_26
10
-1.4097
20
-3.1369
40
0.4445
1
10K
41
0.75
7
W0$1016
0
TEXT
8
PART_TYPE_TOP
10
-1.4097
20
-3.7719
40
0.4445
1
R_DUP5
41
0.75
7
W0$1016
0
TEXT
8
PART_INFO
10
-1.4097
20
-4.4069
40
0.4445
1
000100
41
0.75
7
W0$1016
0
TEXT
8
PART_PTS
10
-1.4097
20
-5.0419
40
0.4445
1
1 2 
41
0.75
7
W0$1016
0
ENDBLK
0
BLOCK
2
PART_TOP_17
8
0
10
0
20
0
3
PART_TOP_17
70
64
0
INSERT
2
SYM_TOP_12
8
0
10
0
20
0
0
INSERT
2
PKG_9
8
0
10
0
20
0
0
TEXT
8
LABEL_INFO
10
1.143
20
-0.254
40
0.4445
1
0 486000000 0 0 0 1
50
270
41
0.75
7
W0$1016
0
TEXT
8
LABEL_ATTRIBUTE
10
1.143
20
-0.254
40
0.4445
1
Ref.Des.
50
270
41
0.75
7
W0$1016
0
TEXT
8
PART_NAME_26
10
1.143
20
-0.254
40
0.4445
1
IN
50
270
41
0.75
7
W0$1016
0
TEXT
8
LABEL_INFO
10
-0.6223
20
-3.1623
40
0.4445
1
0 0 0 0 0 0
41
0.75
7
W0$1016
0
TEXT
8
LABEL_ATTRIBUTE
10
-0.6223
20
-3.1623
40
0.4445
1
Comment
41
0.75
7
W0$1016
0
TEXT
8
ATTRIBUTE_26
10
-0.6223
20
-3.1623
40
0.4445
1
TP1
41
0.75
7
W0$1016
0
TEXT
8
PART_TYPE_TOP
10
-0.6223
20
-3.7973
40
0.4445
1
TP1_0
41
0.75
7
W0$1016
0
TEXT
8
PART_INFO
10
-0.6223
20
-4.4323
40
0.4445
1
000100
41
0.75
7
W0$1016
0
TEXT
8
PART_PTS
10
-0.6223
20
-5.0673
40
0.4445
1
1 
41
0.75
7
W0$1016
0
ENDBLK
0
BLOCK
2
PART_TOP_18
8
0
10
0
20
0
3
PART_TOP_18
70
64
0
INSERT
2
SYM_TOP_12
8
0
10
0
20
0
0
INSERT
2
PKG_9
8
0
10
0
20
0
0
TEXT
8
LABEL_INFO
10
1.143
20
2.54
40
0.4445
1
0 486000000 0 0 0 1
50
270
41
0.75
7
W0$1016
0
TEXT
8
LABEL_ATTRIBUTE
10
1.143
20
2.54
40
0.4445
1
Ref.Des.
50
270
41
0.75
7
W0$1016
0
TEXT
8
PART_NAME_26
10
1.143
20
2.54
40
0.4445
1
OUT
50
270
41
0.75
7
W0$1016
0
TEXT
8
LABEL_INFO
10
-3.1623
20
0.6223
40
0.4445
1
0 486000000 0 0 0 0
50
270
41
0.75
7
W0$1016
0
TEXT
8
LABEL_ATTRIBUTE
10
-3.1623
20
0.6223
40
0.4445
1
Comment
50
270
41
0.75
7
W0$1016
0
TEXT
8
ATTRIBUTE_26
10
-3.1623
20
0.6223
40
0.4445
1
TP1
50
270
41
0.75
7
W0$1016
0
TEXT
8
PART_TYPE_TOP
10
-3.1623
20
-0.0127
40
0.4445
1
TP1_0
50
270
41
0.75
7
W0$1016
0
TEXT
8
PART_INFO
10
-3.1623
20
-0.6477
40
0.4445
1
000100
50
270
41
0.75
7
W0$1016
0
TEXT
8
PART_PTS
10
-3.1623
20
-1.2827
40
0.4445
1
1 
50
270
41
0.75
7
W0$1016
0
ENDBLK
0
BLOCK
2
PART_TOP_19
8
0
10
0
20
0
3
PART_TOP_19
70
64
0
INSERT
2
SYM_TOP_13
8
0
10
0
20
0
0
INSERT
2
PKG_10
8
0
10
0
20
0
0
TEXT
8
LABEL_INFO
10
-3.937
20
0.635
40
0.4445
1
0 486000000 0 0 0 1
50
270
41
0.75
7
W0$1016
0
TEXT
8
LABEL_ATTRIBUTE
10
-3.937
20
0.635
40
0.4445
1
Ref.Des.
50
270
41
0.75
7
W0$1016
0
TEXT
8
PART_NAME_26
10
-3.937
20
0.635
40
0.4445
1
U1
50
270
41
0.75
7
W0$1016
0
TEXT
8
LABEL_INFO
10
-2.2733
20
-6.4389
40
0.4445
1
0 0 0 0 0 0
41
0.75
7
W0$1016
0
TEXT
8
LABEL_ATTRIBUTE
10
-2.2733
20
-6.4389
40
0.4445
1
Comment
41
0.75
7
W0$1016
0
TEXT
8
ATTRIBUTE_26
10
-2.2733
20
-6.4389
40
0.4445
1
MP1583
41
0.75
7
W0$1016
0
TEXT
8
PART_TYPE_TOP
10
-2.2733
20
-7.0739
40
0.4445
1
24AA02
41
0.75
7
W0$1016
0
TEXT
8
PART_INFO
10
-2.2733
20
-7.7089
40
0.4445
1
000100
41
0.75
7
W0$1016
0
TEXT
8
PART_PTS
10
-2.2733
20
-8.3439
40
0.4445
1
1 2 3 4 5 6 7 8 9 
41
0.75
7
W0$1016
0
ENDBLK
0
BLOCK
2
PART_TOP_20
8
0
10
0
20
0
3
PART_TOP_20
70
64
0
INSERT
2
SYM_TOP_14
8
0
10
0
20
0
0
INSERT
2
PKG_11
8
0
10
0
20
0
0
TEXT
8
LABEL_INFO
10
-4.2379973333
20
3.128002
40
0.4445
1
0 0 0 0 0 1
41
0.75
7
W0$1016
0
TEXT
8
LABEL_ATTRIBUTE
10
-4.2379973333
20
3.128002
40
0.4445
1
Ref.Des.
41
0.75
7
W0$1016
0
TEXT
8
PART_NAME_26
10
-4.2379973333
20
3.128002
40
0.4445
1
$$$1
41
0.75
7
W0$1016
0
TEXT
8
LABEL_INFO
10
-3.3654973333
20
-5.9054973333
40
0.4445
1
0 0 0 0 0 0
41
0.75
7
W0$1016
0
TEXT
8
LABEL_ATTRIBUTE
10
-3.3654973333
20
-5.9054973333
40
0.4445
1
Comment
41
0.75
7
W0$1016
0
TEXT
8
ATTRIBUTE_26
10
-3.3654973333
20
-5.9054973333
40
0.4445
1
HEADER 9
41
0.75
7
W0$1016
0
TEXT
8
PART_TYPE_TOP
10
-3.3654973333
20
-6.5404973333
40
0.4445
1
HEADER_9
41
0.75
7
W0$1016
0
TEXT
8
PART_INFO
10
-3.3654973333
20
-7.1754973333
40
0.4445
1
000110
41
0.75
7
W0$1016
0
TEXT
8
PART_PTS
10
-3.3654973333
20
-7.8104973333
40
0.4445
1
1 2 3 4 5 6 7 8 9 
41
0.75
7
W0$1016
0
ENDBLK
0
BLOCK
2
PART_TOP_21
8
0
10
0
20
0
3
PART_TOP_21
70
64
0
INSERT
2
SYM_TOP_14
8
0
10
0
20
0
0
INSERT
2
PKG_11
8
0
10
0
20
0
0
TEXT
8
LABEL_INFO
10
-4.1109973333
20
3.4019993333
40
0.4445
1
0 0 0 0 0 1
41
0.75
7
W0$1016
0
TEXT
8
LABEL_ATTRIBUTE
10
-4.1109973333
20
3.4019993333
40
0.4445
1
Ref.Des.
41
0.75
7
W0$1016
0
TEXT
8
PART_NAME_26
10
-4.1109973333
20
3.4019993333
40
0.4445
1
$$$2
41
0.75
7
W0$1016
0
TEXT
8
LABEL_INFO
10
-3.3654973333
20
-5.9055
40
0.4445
1
0 0 0 0 0 0
41
0.75
7
W0$1016
0
TEXT
8
LABEL_ATTRIBUTE
10
-3.3654973333
20
-5.9055
40
0.4445
1
Comment
41
0.75
7
W0$1016
0
TEXT
8
ATTRIBUTE_26
10
-3.3654973333
20
-5.9055
40
0.4445
1
HEADER 9
41
0.75
7
W0$1016
0
TEXT
8
PART_TYPE_TOP
10
-3.3654973333
20
-6.5405
40
0.4445
1
HEADER_9
41
0.75
7
W0$1016
0
TEXT
8
PART_INFO
10
-3.3654973333
20
-7.1755
40
0.4445
1
000110
41
0.75
7
W0$1016
0
TEXT
8
PART_PTS
10
-3.3654973333
20
-7.8105
40
0.4445
1
1 2 3 4 5 6 7 8 9 
41
0.75
7
W0$1016
0
ENDBLK
0
BLOCK
2
PART_TOP_22
8
0
10
0
20
0
3
PART_TOP_22
70
64
0
INSERT
2
SYM_TOP_14
8
0
10
0
20
0
0
INSERT
2
PKG_11
8
0
10
0
20
0
0
TEXT
8
LABEL_INFO
10
-4.3739993333
20
3.1479993333
40
0.4445
1
0 0 0 0 0 1
41
0.75
7
W0$1016
0
TEXT
8
LABEL_ATTRIBUTE
10
-4.3739993333
20
3.1479993333
40
0.4445
1
Ref.Des.
41
0.75
7
W0$1016
0
TEXT
8
PART_NAME_26
10
-4.3739993333
20
3.1479993333
40
0.4445
1
$$$3
41
0.75
7
W0$1016
0
TEXT
8
LABEL_INFO
10
-3.3655
20
-5.9055
40
0.4445
1
0 0 0 0 0 0
41
0.75
7
W0$1016
0
TEXT
8
LABEL_ATTRIBUTE
10
-3.3655
20
-5.9055
40
0.4445
1
Comment
41
0.75
7
W0$1016
0
TEXT
8
ATTRIBUTE_26
10
-3.3655
20
-5.9055
40
0.4445
1
HEADER 9
41
0.75
7
W0$1016
0
TEXT
8
PART_TYPE_TOP
10
-3.3655
20
-6.5405
40
0.4445
1
HEADER_9
41
0.75
7
W0$1016
0
TEXT
8
PART_INFO
10
-3.3655
20
-7.1755
40
0.4445
1
000110
41
0.75
7
W0$1016
0
TEXT
8
PART_PTS
10
-3.3655
20
-7.8105
40
0.4445
1
1 2 3 4 5 6 7 8 9 
41
0.75
7
W0$1016
0
ENDBLK
0
BLOCK
2
PART_TOP_23
8
0
10
0
20
0
3
PART_TOP_23
70
64
0
INSERT
2
SYM_TOP_14
8
0
10
0
20
0
0
INSERT
2
PKG_11
8
0
10
0
20
0
0
TEXT
8
LABEL_INFO
10
-3.6373993333
20
4.144002
40
0.4445
1
0 0 0 0 0 1
41
0.75
7
W0$1016
0
TEXT
8
LABEL_ATTRIBUTE
10
-3.6373993333
20
4.144002
40
0.4445
1
Ref.Des.
41
0.75
7
W0$1016
0
TEXT
8
PART_NAME_26
10
-3.6373993333
20
4.144002
40
0.4445
1
$$$4
41
0.75
7
W0$1016
0
TEXT
8
LABEL_INFO
10
-3.3655
20
-5.9054973333
40
0.4445
1
0 0 0 0 0 0
41
0.75
7
W0$1016
0
TEXT
8
LABEL_ATTRIBUTE
10
-3.3655
20
-5.9054973333
40
0.4445
1
Comment
41
0.75
7
W0$1016
0
TEXT
8
ATTRIBUTE_26
10
-3.3655
20
-5.9054973333
40
0.4445
1
HEADER 9
41
0.75
7
W0$1016
0
TEXT
8
PART_TYPE_TOP
10
-3.3655
20
-6.5404973333
40
0.4445
1
HEADER_9
41
0.75
7
W0$1016
0
TEXT
8
PART_INFO
10
-3.3655
20
-7.1754973333
40
0.4445
1
000110
41
0.75
7
W0$1016
0
TEXT
8
PART_PTS
10
-3.3655
20
-7.8104973333
40
0.4445
1
1 2 3 4 5 6 7 8 9 
41
0.75
7
W0$1016
0
ENDBLK
0
BLOCK
2
PART_TOP_24
8
0
10
0
20
0
3
PART_TOP_24
70
64
0
INSERT
2
SYM_TOP_15
8
0
10
0
20
0
0
INSERT
2
PKG_12
8
0
10
0
20
0
0
TEXT
8
LABEL_INFO
10
3.6449986667
20
2.9529986667
40
0.4445
1
0 486000000 0 0 0 1
50
270
41
0.75
7
W0$1016
0
TEXT
8
LABEL_ATTRIBUTE
10
3.6449986667
20
2.9529986667
40
0.4445
1
Ref.Des.
50
270
41
0.75
7
W0$1016
0
TEXT
8
PART_NAME_26
10
3.6449986667
20
2.9529986667
40
0.4445
1
CN3
50
270
41
0.75
7
W0$1016
0
TEXT
8
LABEL_INFO
10
-5.7531
20
4.0259
40
1.0668
1
0 486000000 0 0 0 0
50
270
41
0.75
7
W0$254
0
TEXT
8
LABEL_ATTRIBUTE
10
-5.7531
20
4.0259
40
1.0668
1
Comment
50
270
41
0.75
7
W0$254
0
TEXT
8
ATTRIBUTE_26
10
-5.7531
20
4.0259
40
1.0668
1
12505WR-02
50
270
41
0.75
7
W0$254
0
TEXT
8
PART_TYPE_TOP
10
-5.7531
20
2.5019
40
1.0668
1
HEADER_2
50
270
41
0.75
7
W0$254
0
TEXT
8
PART_INFO
10
-5.7531
20
0.9779
40
1.0668
1
000110
50
270
41
0.75
7
W0$254
0
TEXT
8
PART_PTS
10
-5.7531
20
-0.5461
40
1.0668
1
1 2 3 4 
50
270
41
0.75
7
W0$254
0
ENDBLK
0
BLOCK
2
PART_TOP_25
8
0
10
0
20
0
3
PART_TOP_25
70
64
0
INSERT
2
SYM_TOP_16
8
0
10
0
20
0
0
INSERT
2
PKG_13
8
0
10
0
20
0
0
TEXT
8
LABEL_INFO
10
-14.8379986667
20
3.3419993333
40
0.4445
1
0 0 0 0 0 1
41
0.75
7
W0$1016
0
TEXT
8
LABEL_ATTRIBUTE
10
-14.8379986667
20
3.3419993333
40
0.4445
1
Ref.Des.
41
0.75
7
W0$1016
0
TEXT
8
PART_NAME_26
10
-14.8379986667
20
3.3419993333
40
0.4445
1
CN4
41
0.75
7
W0$1016
0
TEXT
8
LABEL_INFO
10
-2.7305
20
-17.3609
40
1.0668
1
0 0 0 0 0 0
41
0.75
7
W0$254
0
TEXT
8
LABEL_ATTRIBUTE
10
-2.7305
20
-17.3609
40
1.0668
1
Comment
41
0.75
7
W0$254
0
TEXT
8
ATTRIBUTE_26
10
-2.7305
20
-17.3609
40
1.0668
1
Header 14
41
0.75
7
W0$254
0
TEXT
8
PART_TYPE_TOP
10
-2.7305
20
-18.8849
40
1.0668
1
HEADER_14
41
0.75
7
W0$254
0
TEXT
8
PART_INFO
10
-2.7305
20
-20.4089
40
1.0668
1
000110
41
0.75
7
W0$254
0
TEXT
8
PART_PTS
10
-2.7305
20
-21.9329
40
1.0668
1
1 2 3 4 5 6 7 8 9 10 11 12 13 14 
41
0.75
7
W0$254
0
ENDBLK
0
BLOCK
2
PART_TOP_26
8
0
10
0
20
0
3
PART_TOP_26
70
64
0
INSERT
2
SYM_TOP_6
8
0
10
0
20
0
0
INSERT
2
PKG_3
8
0
10
0
20
0
0
TEXT
8
LABEL_INFO
10
6.3129993333
20
0.635
40
0.4445
1
0 486000000 0 0 0 1
50
270
41
0.75
7
W0$1016
0
TEXT
8
LABEL_ATTRIBUTE
10
6.3129993333
20
0.635
40
0.4445
1
Ref.Des.
50
270
41
0.75
7
W0$1016
0
TEXT
8
PART_NAME_26
10
6.3129993333
20
0.635
40
0.4445
1
CN2
50
270
41
0.75
7
W0$1016
0
TEXT
8
LABEL_INFO
10
-7.9375
20
5.9055
40
0.4445
1
0 486000000 0 0 0 0
50
270
41
0.75
7
W0$1016
0
TEXT
8
LABEL_ATTRIBUTE
10
-7.9375
20
5.9055
40
0.4445
1
Comment
50
270
41
0.75
7
W0$1016
0
TEXT
8
ATTRIBUTE_26
10
-7.9375
20
5.9055
40
0.4445
1
SMW200-04P
50
270
41
0.75
7
W0$1016
0
TEXT
8
PART_TYPE_TOP
10
-7.9375
20
5.2705
40
0.4445
1
HEADER_4
50
270
41
0.75
7
W0$1016
0
TEXT
8
PART_INFO
10
-7.9375
20
4.6355
40
0.4445
1
000110
50
270
41
0.75
7
W0$1016
0
TEXT
8
PART_PTS
10
-7.9375
20
4.0005
40
0.4445
1
1 2 3 4 5 6 
50
270
41
0.75
7
W0$1016
0
ENDBLK
0
BLOCK
2
PART_TOP_27
8
0
10
0
20
0
3
PART_TOP_27
70
64
0
INSERT
2
SYM_TOP_17
8
0
10
0
20
0
0
INSERT
2
PKG_14
8
0
10
0
20
0
0
TEXT
8
LABEL_INFO
10
-2.661
20
3.573
40
0.4445
1
0 0 0 0 0 1
41
0.75
7
W0$1016
0
TEXT
8
LABEL_ATTRIBUTE
10
-2.661
20
3.573
40
0.4445
1
Ref.Des.
41
0.75
7
W0$1016
0
TEXT
8
PART_NAME_26
10
-2.661
20
3.573
40
0.4445
1
CN5
41
0.75
7
W0$1016
0
TEXT
8
LABEL_INFO
10
-2.8321
20
-4.3561
40
1.0668
1
0 0 0 0 0 0
41
0.75
7
W0$254
0
TEXT
8
LABEL_ATTRIBUTE
10
-2.8321
20
-4.3561
40
1.0668
1
Comment
41
0.75
7
W0$254
0
TEXT
8
ATTRIBUTE_26
10
-2.8321
20
-4.3561
40
1.0668
1
SMW200-04P
41
0.75
7
W0$254
0
TEXT
8
PART_TYPE_TOP
10
-2.8321
20
-5.8801
40
1.0668
1
HEADER_4/2
41
0.75
7
W0$254
0
TEXT
8
PART_INFO
10
-2.8321
20
-7.4041
40
1.0668
1
000100
41
0.75
7
W0$254
0
TEXT
8
PART_PTS
10
-2.8321
20
-8.9281
40
1.0668
1
1 2 3 4 
41
0.75
7
W0$254
0
ENDBLK
0
BLOCK
2
SYM_TOP_4
8
0
10
0
20
0
3
SYM_TOP_4
70
64
0
TEXT
8
SYM_NAME
10
0
20
0
40
1.778
1
EL5
41
0.75
0
TEXT
8
SYM_ATTRIBUTE_26
10
-4.2769986667
20
5.7032
40
0.889
1
Comment
41
0.75
7
W0$127R0
0
TEXT
8
SYM_PART_NAME_26
10
-4.2769986667
20
6.9732
40
0.889
1
 
41
0.75
7
W0$127R0
0
INSERT
2
PART_BODY_TOP_16
8
0
10
0
20
0
0
INSERT
2
STK_TOP_4
8
0
10
0
20
3.5
0
TEXT
8
SYM_TERMINAL
10
0
20
-3.048
40
1.778
1
1
0
INSERT
2
STK_TOP_4
8
0
10
0
20
-3.5
0
TEXT
8
SYM_TERMINAL
10
0
20
-6.096
40
1.778
1
2
0
ENDBLK
0
BLOCK
2
PKG_0
8
0
10
0
20
0
3
PKG_0
70
64
0
TEXT
8
PKG_INFO
10
0
20
0
40
1.778
1
*SYM:= 4
0
TEXT
8
PKG_INFO
10
0
20
-3.048
40
1.778
1
*PKG:= 0 CAP_DUP2 UND
0
TEXT
8
PKG_INFO
10
0
20
-6.096
40
1.778
1
*GATE:=0
0
TEXT
8
PKG_INFO
10
0
20
-9.144
40
1.778
1
*GATEPIN:= 0 5 1 <>
0
TEXT
8
PKG_INFO
10
0
20
-12.192
40
1.778
1
*GATEPIN:= 0 5 2 <>
0
ENDBLK
0
BLOCK
2
SYM_TOP_5
8
0
10
0
20
0
3
SYM_TOP_5
70
64
0
TEXT
8
SYM_NAME
10
0
20
0
40
1.778
1
C1608
41
0.75
0
TEXT
8
SYM_ATTRIBUTE_26
10
-1.8379993333
20
1.0263753333
40
0.889
1
Comment
41
0.75
7
W0$127R0
0
TEXT
8
SYM_PART_NAME_26
10
-1.8379993333
20
2.2963753333
40
0.889
1
 
41
0.75
7
W0$127R0
0
INSERT
2
PART_BODY_TOP_17
8
0
10
0
20
0
0
INSERT
2
STK_TOP_5
8
0
10
-0.7874
20
0
0
TEXT
8
SYM_TERMINAL
10
0
20
-3.048
40
1.778
1
1
0
INSERT
2
STK_TOP_5
8
0
10
0.7874
20
0
0
TEXT
8
SYM_TERMINAL
10
0
20
-6.096
40
1.778
1
2
0
ENDBLK
0
BLOCK
2
PKG_1
8
0
10
0
20
0
3
PKG_1
70
64
0
TEXT
8
PKG_INFO
10
0
20
0
40
1.778
1
*SYM:= 5
0
TEXT
8
PKG_INFO
10
0
20
-3.048
40
1.778
1
*PKG:= 0 CAP_NP_DUP1 UND
0
TEXT
8
PKG_INFO
10
0
20
-6.096
40
1.778
1
*GATE:=0
0
TEXT
8
PKG_INFO
10
0
20
-9.144
40
1.778
1
*GATEPIN:= 0 5 1 <>
0
TEXT
8
PKG_INFO
10
0
20
-12.192
40
1.778
1
*GATEPIN:= 0 5 2 <>
0
ENDBLK
0
BLOCK
2
PKG_2
8
0
10
0
20
0
3
PKG_2
70
64
0
TEXT
8
PKG_INFO
10
0
20
0
40
1.778
1
*SYM:= 5
0
TEXT
8
PKG_INFO
10
0
20
-3.048
40
1.778
1
*PKG:= 0 CAP_NP UND
0
TEXT
8
PKG_INFO
10
0
20
-6.096
40
1.778
1
*GATE:=0
0
TEXT
8
PKG_INFO
10
0
20
-9.144
40
1.778
1
*GATEPIN:= 0 5 1 <>
0
TEXT
8
PKG_INFO
10
0
20
-12.192
40
1.778
1
*GATEPIN:= 0 5 2 <>
0
ENDBLK
0
BLOCK
2
SYM_TOP_6
8
0
10
0
20
0
3
SYM_TOP_6
70
64
0
TEXT
8
SYM_NAME
10
0
20
0
40
1.778
1
20037WR-04
41
0.75
0
TEXT
8
SYM_ATTRIBUTE_26
10
-6.075
20
5.6532026667
40
0.889
1
Comment
41
0.75
7
W0$127R0
0
TEXT
8
SYM_PART_NAME_26
10
-6.075
20
6.9232026667
40
0.889
1
 
41
0.75
7
W0$127R0
0
INSERT
2
PART_BODY_TOP_18
8
0
10
0
20
0
0
INSERT
2
STK_TOP_6
8
0
10
2.9999986667
20
3.750002
0
TEXT
8
SYM_TERMINAL
10
0
20
-3.048
40
1.778
1
1
0
INSERT
2
STK_TOP_6
8
0
10
1
20
3.750002
0
TEXT
8
SYM_TERMINAL
10
0
20
-6.096
40
1.778
1
2
0
INSERT
2
STK_TOP_6
8
0
10
-1
20
3.750002
0
TEXT
8
SYM_TERMINAL
10
0
20
-9.144
40
1.778
1
3
0
INSERT
2
STK_TOP_6
8
0
10
-2.9999986667
20
3.750002
0
TEXT
8
SYM_TERMINAL
10
0
20
-12.192
40
1.778
1
4
0
INSERT
2
STK_TOP_7
8
0
10
5.2999993333
20
-3.7499973333
0
TEXT
8
SYM_TERMINAL
10
0
20
-15.24
40
1.778
1
5
0
INSERT
2
STK_TOP_7
8
0
10
-5.2999993333
20
-3.7499973333
0
TEXT
8
SYM_TERMINAL
10
0
20
-18.288
40
1.778
1
6
0
ENDBLK
0
BLOCK
2
PKG_3
8
0
10
0
20
0
3
PKG_3
70
64
0
TEXT
8
PKG_INFO
10
0
20
0
40
1.778
1
*SYM:= 6
0
TEXT
8
PKG_INFO
10
0
20
-3.048
40
1.778
1
*PKG:= 0 HEADER_4 UND
0
TEXT
8
PKG_INFO
10
0
20
-6.096
40
1.778
1
*GATE:=0
0
TEXT
8
PKG_INFO
10
0
20
-9.144
40
1.778
1
*GATEPIN:= 0 5 1 <>
0
TEXT
8
PKG_INFO
10
0
20
-12.192
40
1.778
1
*GATEPIN:= 0 5 2 <>
0
TEXT
8
PKG_INFO
10
0
20
-15.24
40
1.778
1
*GATEPIN:= 0 5 3 <>
0
TEXT
8
PKG_INFO
10
0
20
-18.288
40
1.778
1
*GATEPIN:= 0 5 4 <>
0
TEXT
8
PKG_INFO
10
0
20
-21.336
40
1.778
1
*GATEPIN:= 0 5 5 <>
0
TEXT
8
PKG_INFO
10
0
20
-24.384
40
1.778
1
*GATEPIN:= 0 5 6 <>
0
ENDBLK
0
BLOCK
2
SYM_TOP_7
8
0
10
0
20
0
3
SYM_TOP_7
70
64
0
TEXT
8
SYM_NAME
10
0
20
0
40
1.778
1
SK34
41
0.75
0
TEXT
8
SYM_ATTRIBUTE_26
10
-8.3999993333
20
3.428198
40
0.889
1
Comment
41
0.75
7
W0$127R0
0
TEXT
8
SYM_PART_NAME_26
10
-8.3999993333
20
4.698198
40
0.889
1
 
41
0.75
7
W0$127R0
0
INSERT
2
PART_BODY_TOP_19
8
0
10
0
20
0
0
INSERT
2
STK_TOP_8
8
0
10
-0.3999986667
20
0
0
TEXT
8
SYM_TERMINAL
10
0
20
-3.048
40
1.778
1
1
0
INSERT
2
STK_TOP_8
8
0
10
-6.5999993333
20
0
0
TEXT
8
SYM_TERMINAL
10
0
20
-6.096
40
1.778
1
2
0
ENDBLK
0
BLOCK
2
PKG_4
8
0
10
0
20
0
3
PKG_4
70
64
0
TEXT
8
PKG_INFO
10
0
20
0
40
1.778
1
*SYM:= 7
0
TEXT
8
PKG_INFO
10
0
20
-3.048
40
1.778
1
*PKG:= 0 DIODE_SCHOTTKY UND
0
TEXT
8
PKG_INFO
10
0
20
-6.096
40
1.778
1
*GATE:=0
0
TEXT
8
PKG_INFO
10
0
20
-9.144
40
1.778
1
*GATEPIN:= 0 5 1 <>
0
TEXT
8
PKG_INFO
10
0
20
-12.192
40
1.778
1
*GATEPIN:= 0 5 2 <>
0
ENDBLK
0
BLOCK
2
SYM_TOP_8
8
0
10
0
20
0
3
SYM_TOP_8
70
64
0
TEXT
8
SYM_NAME
10
0
20
0
40
1.778
1
PH-DC-JACK
41
0.75
0
TEXT
8
SYM_ATTRIBUTE_26
10
-15.07
20
6.4732
40
0.889
1
Comment
41
0.75
7
W0$127R0
0
TEXT
8
SYM_PART_NAME_26
10
-15.07
20
7.7432
40
0.889
1
 
41
0.75
7
W0$127R0
0
INSERT
2
PART_BODY_TOP_20
8
0
10
0
20
0
0
INSERT
2
STK_TOP_9
8
0
10
-13.8
20
0
0
TEXT
8
SYM_TERMINAL
10
0
20
-3.048
40
1.778
1
1
0
INSERT
2
STK_TOP_10
8
0
10
-7.7999993333
20
0
0
TEXT
8
SYM_TERMINAL
10
0
20
-6.096
40
1.778
1
2
0
INSERT
2
STK_TOP_11
8
0
10
-10.8000006667
20
5
0
TEXT
8
SYM_TERMINAL
10
0
20
-9.144
40
1.778
1
3
0
ENDBLK
0
BLOCK
2
PKG_5
8
0
10
0
20
0
3
PKG_5
70
64
0
TEXT
8
PKG_INFO
10
0
20
0
40
1.778
1
*SYM:= 8
0
TEXT
8
PKG_INFO
10
0
20
-3.048
40
1.778
1
*PKG:= 0 CONN-POWER_2 UND
0
TEXT
8
PKG_INFO
10
0
20
-6.096
40
1.778
1
*GATE:=0
0
TEXT
8
PKG_INFO
10
0
20
-9.144
40
1.778
1
*GATEPIN:= 0 5 1 <>
0
TEXT
8
PKG_INFO
10
0
20
-12.192
40
1.778
1
*GATEPIN:= 0 5 2 <>
0
TEXT
8
PKG_INFO
10
0
20
-15.24
40
1.778
1
*GATEPIN:= 0 5 3 <>
0
ENDBLK
0
BLOCK
2
SYM_TOP_9
8
0
10
0
20
0
3
SYM_TOP_9
70
64
0
TEXT
8
SYM_NAME
10
0
20
0
40
1.778
1
DIN-423
41
0.75
0
TEXT
8
SYM_ATTRIBUTE_26
10
-7.5749993333
20
17.853198
40
0.889
1
Comment
41
0.75
7
W0$127R0
0
TEXT
8
SYM_PART_NAME_26
10
-7.5749993333
20
19.123198
40
0.889
1
 
41
0.75
7
W0$127R0
0
INSERT
2
PART_BODY_TOP_21
8
0
10
0
20
0
0
INSERT
2
STK_TOP_12
8
0
10
-2.8999986667
20
14.8500006667
0
TEXT
8
SYM_TERMINAL
10
0
20
-3.048
40
1.778
1
1
0
INSERT
2
STK_TOP_12
8
0
10
2.8999986667
20
14.8500006667
0
TEXT
8
SYM_TERMINAL
10
0
20
-6.096
40
1.778
1
2
0
INSERT
2
STK_TOP_12
8
0
10
-2.5
20
11.3
0
TEXT
8
SYM_TERMINAL
10
0
20
-9.144
40
1.778
1
3
0
INSERT
2
STK_TOP_12
8
0
10
2.5
20
11.3
0
TEXT
8
SYM_TERMINAL
10
0
20
-12.192
40
1.778
1
4
0
INSERT
2
STK_TOP_13
8
0
10
-2.5
20
7.5
0
TEXT
8
SYM_TERMINAL
10
0
20
-15.24
40
1.778
1
5
0
INSERT
2
STK_TOP_13
8
0
10
2.5
20
7.5
0
TEXT
8
SYM_TERMINAL
10
0
20
-18.288
40
1.778
1
6
0
INSERT
2
STK_TOP_14
8
0
10
0
20
5.4999986667
0
TEXT
8
SYM_TERMINAL
10
0
20
-21.336
40
1.778
1
7
0
ENDBLK
0
BLOCK
2
PKG_6
8
0
10
0
20
0
3
PKG_6
70
64
0
TEXT
8
PKG_INFO
10
0
20
0
40
1.778
1
*SYM:= 9
0
TEXT
8
PKG_INFO
10
0
20
-3.048
40
1.778
1
*PKG:= 0 HEADER_7 UND
0
TEXT
8
PKG_INFO
10
0
20
-6.096
40
1.778
1
*GATE:=0
0
TEXT
8
PKG_INFO
10
0
20
-9.144
40
1.778
1
*GATEPIN:= 0 5 1 <>
0
TEXT
8
PKG_INFO
10
0
20
-12.192
40
1.778
1
*GATEPIN:= 0 5 2 <>
0
TEXT
8
PKG_INFO
10
0
20
-15.24
40
1.778
1
*GATEPIN:= 0 5 3 <>
0
TEXT
8
PKG_INFO
10
0
20
-18.288
40
1.778
1
*GATEPIN:= 0 5 4 <>
0
TEXT
8
PKG_INFO
10
0
20
-21.336
40
1.778
1
*GATEPIN:= 0 5 5 <>
0
TEXT
8
PKG_INFO
10
0
20
-24.384
40
1.778
1
*GATEPIN:= 0 5 6 <>
0
TEXT
8
PKG_INFO
10
0
20
-27.432
40
1.778
1
*GATEPIN:= 0 5 7 <>
0
ENDBLK
0
BLOCK
2
SYM_TOP_10
8
0
10
0
20
0
3
SYM_TOP_10
70
64
0
TEXT
8
SYM_NAME
10
0
20
0
40
1.778
1
INDUC-B1260\7MM
41
0.75
0
TEXT
8
SYM_ATTRIBUTE_26
10
-7.9999986667
20
6.3048006667
40
0.889
1
Comment
41
0.75
7
W0$127R0
0
TEXT
8
SYM_PART_NAME_26
10
-7.9999986667
20
7.5748006667
40
0.889
1
 
41
0.75
7
W0$127R0
0
INSERT
2
PART_BODY_TOP_22
8
0
10
0
20
0
0
INSERT
2
STK_TOP_15
8
0
10
-5.4999986667
20
0
0
TEXT
8
SYM_TERMINAL
10
0
20
-3.048
40
1.778
1
1
0
INSERT
2
STK_TOP_15
8
0
10
5.4999986667
20
0
0
TEXT
8
SYM_TERMINAL
10
0
20
-6.096
40
1.778
1
2
0
ENDBLK
0
BLOCK
2
PKG_7
8
0
10
0
20
0
3
PKG_7
70
64
0
TEXT
8
PKG_INFO
10
0
20
0
40
1.778
1
*SYM:= 10
0
TEXT
8
PKG_INFO
10
0
20
-3.048
40
1.778
1
*PKG:= 0 INDUCTOR_0 UND
0
TEXT
8
PKG_INFO
10
0
20
-6.096
40
1.778
1
*GATE:=0
0
TEXT
8
PKG_INFO
10
0
20
-9.144
40
1.778
1
*GATEPIN:= 0 5 1 <>
0
TEXT
8
PKG_INFO
10
0
20
-12.192
40
1.778
1
*GATEPIN:= 0 5 2 <>
0
ENDBLK
0
BLOCK
2
SYM_TOP_11
8
0
10
0
20
0
3
SYM_TOP_11
70
64
0
TEXT
8
SYM_NAME
10
0
20
0
40
1.778
1
R1608
41
0.75
0
TEXT
8
SYM_ATTRIBUTE_26
10
-1.6764
20
1.0668
40
0.889
1
Comment
41
0.75
7
W0$127R0
0
TEXT
8
SYM_PART_NAME_26
10
-1.6764
20
2.3368
40
0.889
1
 
41
0.75
7
W0$127R0
0
INSERT
2
PART_BODY_TOP_23
8
0
10
0
20
0
0
INSERT
2
STK_TOP_5
8
0
10
-0.7874
20
0
0
TEXT
8
SYM_TERMINAL
10
0
20
-3.048
40
1.778
1
1
0
INSERT
2
STK_TOP_5
8
0
10
0.7874
20
0
0
TEXT
8
SYM_TERMINAL
10
0
20
-6.096
40
1.778
1
2
0
ENDBLK
0
BLOCK
2
PKG_8
8
0
10
0
20
0
3
PKG_8
70
64
0
TEXT
8
PKG_INFO
10
0
20
0
40
1.778
1
*SYM:= 11
0
TEXT
8
PKG_INFO
10
0
20
-3.048
40
1.778
1
*PKG:= 0 R_DUP5 UND
0
TEXT
8
PKG_INFO
10
0
20
-6.096
40
1.778
1
*GATE:=0
0
TEXT
8
PKG_INFO
10
0
20
-9.144
40
1.778
1
*GATEPIN:= 0 5 1 <>
0
TEXT
8
PKG_INFO
10
0
20
-12.192
40
1.778
1
*GATEPIN:= 0 5 2 <>
0
ENDBLK
0
BLOCK
2
SYM_TOP_12
8
0
10
0
20
0
3
SYM_TOP_12
70
64
0
TEXT
8
SYM_NAME
10
0
20
0
40
1.778
1
TP
41
0.75
0
TEXT
8
SYM_ATTRIBUTE_26
10
-0.875
20
1.0782
40
0.889
1
Comment
41
0.75
7
W0$127R0
0
TEXT
8
SYM_PART_NAME_26
10
-0.875
20
2.3482
40
0.889
1
 
41
0.75
7
W0$127R0
0
INSERT
2
PART_BODY_TOP_24
8
0
10
0
20
0
0
INSERT
2
STK_TOP_16
8
0
10
0
20
0
0
TEXT
8
SYM_TERMINAL
10
0
20
-3.048
40
1.778
1
1
0
ENDBLK
0
BLOCK
2
PKG_9
8
0
10
0
20
0
3
PKG_9
70
64
0
TEXT
8
PKG_INFO
10
0
20
0
40
1.778
1
*SYM:= 12
0
TEXT
8
PKG_INFO
10
0
20
-3.048
40
1.778
1
*PKG:= 0 TP1_0 UND
0
TEXT
8
PKG_INFO
10
0
20
-6.096
40
1.778
1
*GATE:=0
0
TEXT
8
PKG_INFO
10
0
20
-9.144
40
1.778
1
*GATEPIN:= 0 5 1 <>
0
ENDBLK
0
BLOCK
2
SYM_TOP_13
8
0
10
0
20
0
3
SYM_TOP_13
70
64
0
TEXT
8
SYM_NAME
10
0
20
0
40
1.778
1
MP1583
41
0.75
0
TEXT
8
SYM_ATTRIBUTE_26
10
-2.9269993333
20
4.6532006667
40
0.889
1
Comment
41
0.75
7
W0$127R0
0
TEXT
8
SYM_PART_NAME_26
10
-2.9269993333
20
5.9232006667
40
0.889
1
 
41
0.75
7
W0$127R0
0
INSERT
2
PART_BODY_TOP_25
8
0
10
0
20
0
0
INSERT
2
STK_TOP_17
8
0
10
-1.905
20
-3.3000006667
0
TEXT
8
SYM_TERMINAL
10
0
20
-3.048
40
1.778
1
1
0
INSERT
2
STK_TOP_17
8
0
10
-0.635
20
-3.3000006667
0
TEXT
8
SYM_TERMINAL
10
0
20
-6.096
40
1.778
1
2
0
INSERT
2
STK_TOP_17
8
0
10
0.635
20
-3.3000006667
0
TEXT
8
SYM_TERMINAL
10
0
20
-9.144
40
1.778
1
3
0
INSERT
2
STK_TOP_17
8
0
10
1.905
20
-3.3000006667
0
TEXT
8
SYM_TERMINAL
10
0
20
-12.192
40
1.778
1
4
0
INSERT
2
STK_TOP_17
8
0
10
1.905
20
3.3000006667
0
TEXT
8
SYM_TERMINAL
10
0
20
-15.24
40
1.778
1
5
0
INSERT
2
STK_TOP_17
8
0
10
0.635
20
3.3000006667
0
TEXT
8
SYM_TERMINAL
10
0
20
-18.288
40
1.778
1
6
0
INSERT
2
STK_TOP_17
8
0
10
-0.635
20
3.3000006667
0
TEXT
8
SYM_TERMINAL
10
0
20
-21.336
40
1.778
1
7
0
INSERT
2
STK_TOP_17
8
0
10
-1.905
20
3.3000006667
0
TEXT
8
SYM_TERMINAL
10
0
20
-24.384
40
1.778
1
8
0
INSERT
2
STK_TOP_18
8
0
10
0
20
0
0
TEXT
8
SYM_TERMINAL
10
0
20
-27.432
40
1.778
1
9
0
ENDBLK
0
BLOCK
2
PKG_10
8
0
10
0
20
0
3
PKG_10
70
64
0
TEXT
8
PKG_INFO
10
0
20
0
40
1.778
1
*SYM:= 13
0
TEXT
8
PKG_INFO
10
0
20
-3.048
40
1.778
1
*PKG:= 0 24AA02 UND
0
TEXT
8
PKG_INFO
10
0
20
-6.096
40
1.778
1
*GATE:=0
0
TEXT
8
PKG_INFO
10
0
20
-9.144
40
1.778
1
*GATEPIN:= 0 5 1 <>
0
TEXT
8
PKG_INFO
10
0
20
-12.192
40
1.778
1
*GATEPIN:= 0 5 2 <>
0
TEXT
8
PKG_INFO
10
0
20
-15.24
40
1.778
1
*GATEPIN:= 0 5 3 <>
0
TEXT
8
PKG_INFO
10
0
20
-18.288
40
1.778
1
*GATEPIN:= 0 5 4 <>
0
TEXT
8
PKG_INFO
10
0
20
-21.336
40
1.778
1
*GATEPIN:= 0 5 5 <>
0
TEXT
8
PKG_INFO
10
0
20
-24.384
40
1.778
1
*GATEPIN:= 0 5 6 <>
0
TEXT
8
PKG_INFO
10
0
20
-27.432
40
1.778
1
*GATEPIN:= 0 5 7 <>
0
TEXT
8
PKG_INFO
10
0
20
-30.48
40
1.778
1
*GATEPIN:= 0 5 8 <>
0
TEXT
8
PKG_INFO
10
0
20
-33.528
40
1.778
1
*GATEPIN:= 0 5 9 <>
0
ENDBLK
0
BLOCK
2
SYM_TOP_14
8
0
10
0
20
0
3
SYM_TOP_14
70
64
0
TEXT
8
SYM_NAME
10
0
20
0
40
1.778
1
MTHOLE3.5_1
41
0.75
0
TEXT
8
SYM_ATTRIBUTE_26
10
-3.6269986667
20
3.8302026667
40
0.889
1
Comment
41
0.75
7
W0$127R0
0
TEXT
8
SYM_PART_NAME_26
10
-3.6269986667
20
5.1002026667
40
0.889
1
 
41
0.75
7
W0$127R0
0
INSERT
2
PART_BODY_TOP_26
8
0
10
0
20
0
0
INSERT
2
STK_TOP_19
8
0
10
0.000002
20
0.000002
0
TEXT
8
SYM_TERMINAL
10
0
20
-3.048
40
1.778
1
1
0
INSERT
2
STK_TOP_20
8
0
10
0.000002
20
2.800002
0
TEXT
8
SYM_TERMINAL
10
0
20
-6.096
40
1.778
1
2
0
INSERT
2
STK_TOP_20
8
0
10
0.000002
20
-2.7999966667
0
TEXT
8
SYM_TERMINAL
10
0
20
-9.144
40
1.778
1
3
0
INSERT
2
STK_TOP_20
8
0
10
2.800002
20
0.000002
0
TEXT
8
SYM_TERMINAL
10
0
20
-12.192
40
1.778
1
4
0
INSERT
2
STK_TOP_20
8
0
10
-2.7999966667
20
0.000002
0
TEXT
8
SYM_TERMINAL
10
0
20
-15.24
40
1.778
1
5
0
INSERT
2
STK_TOP_20
8
0
10
-1.999998
20
2.0000033333
0
TEXT
8
SYM_TERMINAL
10
0
20
-18.288
40
1.778
1
6
0
INSERT
2
STK_TOP_20
8
0
10
2.0000033333
20
2.0000033333
0
TEXT
8
SYM_TERMINAL
10
0
20
-21.336
40
1.778
1
7
0
INSERT
2
STK_TOP_20
8
0
10
2.0000033333
20
-1.999998
0
TEXT
8
SYM_TERMINAL
10
0
20
-24.384
40
1.778
1
8
0
INSERT
2
STK_TOP_20
8
0
10
-1.999998
20
-1.999998
0
TEXT
8
SYM_TERMINAL
10
0
20
-27.432
40
1.778
1
9
0
ENDBLK
0
BLOCK
2
PKG_11
8
0
10
0
20
0
3
PKG_11
70
64
0
TEXT
8
PKG_INFO
10
0
20
0
40
1.778
1
*SYM:= 14
0
TEXT
8
PKG_INFO
10
0
20
-3.048
40
1.778
1
*PKG:= 0 HEADER_9 UND
0
TEXT
8
PKG_INFO
10
0
20
-6.096
40
1.778
1
*GATE:=0
0
TEXT
8
PKG_INFO
10
0
20
-9.144
40
1.778
1
*GATEPIN:= 0 5 1 <>
0
TEXT
8
PKG_INFO
10
0
20
-12.192
40
1.778
1
*GATEPIN:= 0 5 2 <>
0
TEXT
8
PKG_INFO
10
0
20
-15.24
40
1.778
1
*GATEPIN:= 0 5 3 <>
0
TEXT
8
PKG_INFO
10
0
20
-18.288
40
1.778
1
*GATEPIN:= 0 5 4 <>
0
TEXT
8
PKG_INFO
10
0
20
-21.336
40
1.778
1
*GATEPIN:= 0 5 5 <>
0
TEXT
8
PKG_INFO
10
0
20
-24.384
40
1.778
1
*GATEPIN:= 0 5 6 <>
0
TEXT
8
PKG_INFO
10
0
20
-27.432
40
1.778
1
*GATEPIN:= 0 5 7 <>
0
TEXT
8
PKG_INFO
10
0
20
-30.48
40
1.778
1
*GATEPIN:= 0 5 8 <>
0
TEXT
8
PKG_INFO
10
0
20
-33.528
40
1.778
1
*GATEPIN:= 0 5 9 <>
0
ENDBLK
0
BLOCK
2
SYM_TOP_15
8
0
10
0
20
0
3
SYM_TOP_15
70
64
0
TEXT
8
SYM_NAME
10
0
20
0
40
1.778
1
12505WR-02
41
0.75
0
TEXT
8
SYM_ATTRIBUTE_26
10
-4.175
20
3.9583173333
40
0.889
1
Comment
41
0.75
7
W0$127R0
0
TEXT
8
SYM_PART_NAME_26
10
-4.175
20
5.2283173333
40
0.889
1
 
41
0.75
7
W0$127R0
0
INSERT
2
PART_BODY_TOP_27
8
0
10
0
20
0
0
INSERT
2
STK_TOP_21
8
0
10
-0.6250073333
20
1.4999993333
0
TEXT
8
SYM_TERMINAL
10
0
20
-3.048
40
1.778
1
1
0
INSERT
2
STK_TOP_21
8
0
10
0.624992
20
1.4999993333
0
TEXT
8
SYM_TERMINAL
10
0
20
-6.096
40
1.778
1
2
0
INSERT
2
STK_TOP_22
8
0
10
-2.925
20
-1.4999993333
0
TEXT
8
SYM_TERMINAL
10
0
20
-9.144
40
1.778
1
3
0
INSERT
2
STK_TOP_22
8
0
10
2.925
20
-1.4999993333
0
TEXT
8
SYM_TERMINAL
10
0
20
-12.192
40
1.778
1
4
0
ENDBLK
0
BLOCK
2
PKG_12
8
0
10
0
20
0
3
PKG_12
70
64
0
TEXT
8
PKG_INFO
10
0
20
0
40
1.778
1
*SYM:= 15
0
TEXT
8
PKG_INFO
10
0
20
-3.048
40
1.778
1
*PKG:= 0 HEADER_2 UND
0
TEXT
8
PKG_INFO
10
0
20
-6.096
40
1.778
1
*GATE:=0
0
TEXT
8
PKG_INFO
10
0
20
-9.144
40
1.778
1
*GATEPIN:= 0 5 1 <>
0
TEXT
8
PKG_INFO
10
0
20
-12.192
40
1.778
1
*GATEPIN:= 0 5 2 <>
0
TEXT
8
PKG_INFO
10
0
20
-15.24
40
1.778
1
*GATEPIN:= 0 5 3 <>
0
TEXT
8
PKG_INFO
10
0
20
-18.288
40
1.778
1
*GATEPIN:= 0 5 4 <>
0
ENDBLK
0
BLOCK
2
SYM_TOP_16
8
0
10
0
20
0
3
SYM_TOP_16
70
64
0
TEXT
8
SYM_NAME
10
0
20
0
40
1.778
1
SMWA200-14
41
0.75
0
TEXT
8
SYM_ATTRIBUTE_26
10
-15.0749966667
20
3.178198
40
0.889
1
Comment
41
0.75
7
W0$127R0
0
TEXT
8
SYM_PART_NAME_26
10
-15.0749966667
20
4.448198
40
0.889
1
 
41
0.75
7
W0$127R0
0
INSERT
2
PART_BODY_TOP_28
8
0
10
0
20
0
0
INSERT
2
STK_TOP_23
8
0
10
-12.9999993333
20
0
0
TEXT
8
SYM_TERMINAL
10
0
20
-3.048
40
1.778
1
1
0
INSERT
2
STK_TOP_24
8
0
10
-10.999998
20
0
0
TEXT
8
SYM_TERMINAL
10
0
20
-6.096
40
1.778
1
2
0
INSERT
2
STK_TOP_24
8
0
10
-8.9999966667
20
0
0
TEXT
8
SYM_TERMINAL
10
0
20
-9.144
40
1.778
1
3
0
INSERT
2
STK_TOP_24
8
0
10
-6.9999986667
20
0
0
TEXT
8
SYM_TERMINAL
10
0
20
-12.192
40
1.778
1
4
0
INSERT
2
STK_TOP_24
8
0
10
-4.9999973333
20
0
0
TEXT
8
SYM_TERMINAL
10
0
20
-15.24
40
1.778
1
5
0
INSERT
2
STK_TOP_24
8
0
10
-2.9999986667
20
0
0
TEXT
8
SYM_TERMINAL
10
0
20
-18.288
40
1.778
1
6
0
INSERT
2
STK_TOP_24
8
0
10
-0.999998
20
0
0
TEXT
8
SYM_TERMINAL
10
0
20
-21.336
40
1.778
1
7
0
INSERT
2
STK_TOP_24
8
0
10
1.0000026667
20
0
0
TEXT
8
SYM_TERMINAL
10
0
20
-24.384
40
1.778
1
8
0
INSERT
2
STK_TOP_24
8
0
10
3.0000013333
20
0
0
TEXT
8
SYM_TERMINAL
10
0
20
-27.432
40
1.778
1
9
0
INSERT
2
STK_TOP_24
8
0
10
5.0000026667
20
0
0
TEXT
8
SYM_TERMINAL
10
0
20
-30.48
40
1.778
1
10
0
INSERT
2
STK_TOP_24
8
0
10
7.0000006667
20
0
0
TEXT
8
SYM_TERMINAL
10
0
20
-33.528
40
1.778
1
11
0
INSERT
2
STK_TOP_24
8
0
10
9.000002
20
0
0
TEXT
8
SYM_TERMINAL
10
0
20
-36.576
40
1.778
1
12
0
INSERT
2
STK_TOP_24
8
0
10
11.0000006667
20
0
0
TEXT
8
SYM_TERMINAL
10
0
20
-39.624
40
1.778
1
13
0
INSERT
2
STK_TOP_24
8
0
10
13.0000013333
20
0
0
TEXT
8
SYM_TERMINAL
10
0
20
-42.672
40
1.778
1
14
0
ENDBLK
0
BLOCK
2
PKG_13
8
0
10
0
20
0
3
PKG_13
70
64
0
TEXT
8
PKG_INFO
10
0
20
0
40
1.778
1
*SYM:= 16
0
TEXT
8
PKG_INFO
10
0
20
-3.048
40
1.778
1
*PKG:= 0 HEADER_14 UND
0
TEXT
8
PKG_INFO
10
0
20
-6.096
40
1.778
1
*GATE:=0
0
TEXT
8
PKG_INFO
10
0
20
-9.144
40
1.778
1
*GATEPIN:= 0 5 1 <>
0
TEXT
8
PKG_INFO
10
0
20
-12.192
40
1.778
1
*GATEPIN:= 0 5 2 <>
0
TEXT
8
PKG_INFO
10
0
20
-15.24
40
1.778
1
*GATEPIN:= 0 5 3 <>
0
TEXT
8
PKG_INFO
10
0
20
-18.288
40
1.778
1
*GATEPIN:= 0 5 4 <>
0
TEXT
8
PKG_INFO
10
0
20
-21.336
40
1.778
1
*GATEPIN:= 0 5 5 <>
0
TEXT
8
PKG_INFO
10
0
20
-24.384
40
1.778
1
*GATEPIN:= 0 5 6 <>
0
TEXT
8
PKG_INFO
10
0
20
-27.432
40
1.778
1
*GATEPIN:= 0 5 7 <>
0
TEXT
8
PKG_INFO
10
0
20
-30.48
40
1.778
1
*GATEPIN:= 0 5 8 <>
0
TEXT
8
PKG_INFO
10
0
20
-33.528
40
1.778
1
*GATEPIN:= 0 5 9 <>
0
TEXT
8
PKG_INFO
10
0
20
-36.576
40
1.778
1
*GATEPIN:= 0 5 10 <>
0
TEXT
8
PKG_INFO
10
0
20
-39.624
40
1.778
1
*GATEPIN:= 0 5 11 <>
0
TEXT
8
PKG_INFO
10
0
20
-42.672
40
1.778
1
*GATEPIN:= 0 5 12 <>
0
TEXT
8
PKG_INFO
10
0
20
-45.72
40
1.778
1
*GATEPIN:= 0 5 13 <>
0
TEXT
8
PKG_INFO
10
0
20
-48.768
40
1.778
1
*GATEPIN:= 0 5 14 <>
0
ENDBLK
0
BLOCK
2
SYM_TOP_17
8
0
10
0
20
0
3
SYM_TOP_17
70
64
0
TEXT
8
SYM_NAME
10
0
20
0
40
1.778
1
SMAW200-4P
41
0.75
0
TEXT
8
SYM_ATTRIBUTE_26
10
-2.075
20
3.278198
40
0.889
1
Comment
41
0.75
7
W0$127R0
0
TEXT
8
SYM_PART_NAME_26
10
-2.075
20
4.548198
40
0.889
1
 
41
0.75
7
W0$127R0
0
INSERT
2
PART_BODY_TOP_29
8
0
10
0
20
0
0
INSERT
2
STK_TOP_25
8
0
10
0
20
0
0
TEXT
8
SYM_TERMINAL
10
0
20
-3.048
40
1.778
1
1
0
INSERT
2
STK_TOP_25
8
0
10
2.0000006667
20
0
0
TEXT
8
SYM_TERMINAL
10
0
20
-6.096
40
1.778
1
2
0
INSERT
2
STK_TOP_25
8
0
10
3.9999993333
20
0
0
TEXT
8
SYM_TERMINAL
10
0
20
-9.144
40
1.778
1
3
0
INSERT
2
STK_TOP_25
8
0
10
6.0000006667
20
0
0
TEXT
8
SYM_TERMINAL
10
0
20
-12.192
40
1.778
1
4
0
ENDBLK
0
BLOCK
2
PKG_14
8
0
10
0
20
0
3
PKG_14
70
64
0
TEXT
8
PKG_INFO
10
0
20
0
40
1.778
1
*SYM:= 17
0
TEXT
8
PKG_INFO
10
0
20
-3.048
40
1.778
1
*PKG:= 0 HEADER_4/2 UND
0
TEXT
8
PKG_INFO
10
0
20
-6.096
40
1.778
1
*GATE:=0
0
TEXT
8
PKG_INFO
10
0
20
-9.144
40
1.778
1
*GATEPIN:= 0 5 1 <>
0
TEXT
8
PKG_INFO
10
0
20
-12.192
40
1.778
1
*GATEPIN:= 0 5 2 <>
0
TEXT
8
PKG_INFO
10
0
20
-15.24
40
1.778
1
*GATEPIN:= 0 5 3 <>
0
TEXT
8
PKG_INFO
10
0
20
-18.288
40
1.778
1
*GATEPIN:= 0 5 4 <>
0
ENDBLK
0
BLOCK
2
PART_BODY_TOP_16
8
0
10
0
20
0
3
PART_BODY_TOP_16
70
64
0
POLYLINE
8
PART_TOP_2DLINE_26
66
1
40
0.254
41
0.254
70
1
0
VERTEX
8
PART_TOP_2DLINE_26
10
4.1499986667
20
3.2000006667
0
VERTEX
8
PART_TOP_2DLINE_26
10
4.1499986667
20
0
0
VERTEX
8
PART_TOP_2DLINE_26
10
4.1499986667
20
-4.1499986667
0
VERTEX
8
PART_TOP_2DLINE_26
10
-4.1499986667
20
-4.1499986667
0
VERTEX
8
PART_TOP_2DLINE_26
10
-4.1499986667
20
3.2000006667
0
VERTEX
8
PART_TOP_2DLINE_26
10
-3.2000006667
20
4.1499986667
0
VERTEX
8
PART_TOP_2DLINE_26
10
3.2000006667
20
4.1499986667
0
SEQEND
0
INSERT
2
SMOOTH_0$254
8
PART_TOP_2DLINE_26
10
4.1499986667
20
3.2000006667
0
INSERT
2
SMOOTH_0$254
8
PART_TOP_2DLINE_26
10
4.1499986667
20
0
0
ENDBLK
0
BLOCK
2
STK_TOP_4
8
0
10
0
20
0
3
STK_TOP_4
70
64
0
INSERT
2
DRIL_HOLE_0
8
DRIL_PLTE_THRU_01
10
0
20
0
0
INSERT
2
DRIL_HOLE_0
8
DRIL_PLTE_THRU_02
10
0
20
0
0
INSERT
2
DRIL_HOLE_0
8
DRIL_PLTE_THRU_03
10
0
20
0
0
INSERT
2
PAD_0
8
PADS_INNER
10
0
20
0
0
INSERT
2
PAD_0
8
PADS_BOT
10
0
20
0
0
INSERT
2
PAD_1
8
PADS_TOP
10
0
20
0
50
90
0
ENDBLK
0
BLOCK
2
PART_BODY_TOP_17
8
0
10
0
20
0
3
PART_BODY_TOP_17
70
64
0
POLYLINE
8
PART_TOP_2DLINE_26
66
1
40
0.1199993333
41
0.1199993333
70
1
0
VERTEX
8
PART_TOP_2DLINE_26
10
-1.016
20
0.762
42
1
0
VERTEX
8
PART_TOP_2DLINE_26
10
-1.016
20
-0.762
0
VERTEX
8
PART_TOP_2DLINE_26
10
0.9722246667
20
-0.761986
42
1.0574703506
0
VERTEX
8
PART_TOP_2DLINE_26
10
0.9722246667
20
0.761986
0
SEQEND
0
INSERT
2
SMOOTH_0$1199993333
8
PART_TOP_2DLINE_26
10
-1.016
20
0.762
0
INSERT
2
SMOOTH_0$1199993333
8
PART_TOP_2DLINE_26
10
-1.016
20
-0.762
0
ENDBLK
0
BLOCK
2
STK_TOP_5
8
0
10
0
20
0
3
STK_TOP_5
70
64
0
INSERT
2
DRIL_HOLE_0
8
DRIL_PLTE_THRU_01
10
0
20
0
0
INSERT
2
DRIL_HOLE_0
8
DRIL_PLTE_THRU_02
10
0
20
0
0
INSERT
2
DRIL_HOLE_0
8
DRIL_PLTE_THRU_03
10
0
20
0
0
INSERT
2
PAD_0
8
PADS_INNER
10
0
20
0
0
INSERT
2
PAD_0
8
PADS_BOT
10
0
20
0
0
INSERT
2
PAD_2
8
PADS_TOP
10
0
20
0
50
90
0
ENDBLK
0
BLOCK
2
PART_BODY_TOP_18
8
0
10
0
20
0
3
PART_BODY_TOP_18
70
64
0
POLYLINE
8
PART_TOP_2DLINE_26
66
1
40
0.1499993333
41
0.1499993333
39
11.5001
70
1
0
VERTEX
8
PART_TOP_2DLINE_26
10
5.588
20
3.606002
42
1
0
VERTEX
8
PART_TOP_2DLINE_26
10
4.572
20
3.606002
42
1
0
SEQEND
0
POLYLINE
8
PART_TOP_2DLINE_26
66
1
40
0.1499993333
41
0.1499993333
39
11.5001
70
1
0
VERTEX
8
PART_TOP_2DLINE_26
10
-6.0000006667
20
-5.549996
0
VERTEX
8
PART_TOP_2DLINE_26
10
-6.0000006667
20
2.1500026667
0
VERTEX
8
PART_TOP_2DLINE_26
10
6.0000006667
20
2.1500026667
0
VERTEX
8
PART_TOP_2DLINE_26
10
6.0000006667
20
-5.549996
0
SEQEND
0
INSERT
2
SMOOTH_0$1499993333
8
PART_TOP_2DLINE_26
10
-6.0000006667
20
-5.549996
0
INSERT
2
SMOOTH_0$1499993333
8
PART_TOP_2DLINE_26
10
-6.0000006667
20
2.1500026667
0
INSERT
2
SMOOTH_0$1499993333
8
PART_TOP_2DLINE_26
10
6.0000006667
20
2.1500026667
0
INSERT
2
SMOOTH_0$1499993333
8
PART_TOP_2DLINE_26
10
6.0000006667
20
-5.549996
0
ENDBLK
0
BLOCK
2
STK_TOP_6
8
0
10
0
20
0
3
STK_TOP_6
70
64
0
INSERT
2
DRIL_HOLE_0
8
DRIL_PLTE_THRU_01
10
0
20
0
0
INSERT
2
DRIL_HOLE_0
8
DRIL_PLTE_THRU_02
10
0
20
0
0
INSERT
2
DRIL_HOLE_0
8
DRIL_PLTE_THRU_03
10
0
20
0
0
INSERT
2
PAD_0
8
PADS_INNER
10
0
20
0
0
INSERT
2
PAD_0
8
PADS_BOT
10
0
20
0
0
INSERT
2
PAD_3
8
PADS_TOP
10
0
20
0
50
90
0
ENDBLK
0
BLOCK
2
STK_TOP_7
8
0
10
0
20
0
3
STK_TOP_7
70
64
0
INSERT
2
DRIL_HOLE_0
8
DRIL_PLTE_THRU_01
10
0
20
0
0
INSERT
2
DRIL_HOLE_0
8
DRIL_PLTE_THRU_02
10
0
20
0
0
INSERT
2
DRIL_HOLE_0
8
DRIL_PLTE_THRU_03
10
0
20
0
0
INSERT
2
PAD_0
8
PADS_INNER
10
0
20
0
0
INSERT
2
PAD_0
8
PADS_BOT
10
0
20
0
0
INSERT
2
PAD_4
8
PADS_TOP
10
0
20
0
50
90
0
ENDBLK
0
BLOCK
2
PART_BODY_TOP_19
8
0
10
0
20
0
3
PART_BODY_TOP_19
70
64
0
POLYLINE
8
PART_TOP_2DLINE_26
66
1
40
0.1499993333
41
0.1499993333
70
1
0
VERTEX
8
PART_TOP_2DLINE_26
10
-7.6499993333
20
-3.1499986667
0
VERTEX
8
PART_TOP_2DLINE_26
10
0.5999986667
20
-3.1499986667
0
VERTEX
8
PART_TOP_2DLINE_26
10
0.5999986667
20
3.1499986667
0
VERTEX
8
PART_TOP_2DLINE_26
10
-7.6499993333
20
3.1499986667
0
SEQEND
0
INSERT
2
SMOOTH_0$1499993333
8
PART_TOP_2DLINE_26
10
-7.6499993333
20
-3.1499986667
0
INSERT
2
SMOOTH_0$1499993333
8
PART_TOP_2DLINE_26
10
0.5999986667
20
-3.1499986667
0
INSERT
2
SMOOTH_0$1499993333
8
PART_TOP_2DLINE_26
10
0.5999986667
20
3.1499986667
0
INSERT
2
SMOOTH_0$1499993333
8
PART_TOP_2DLINE_26
10
-7.6499993333
20
3.1499986667
0
POLYLINE
8
PART_TOP_2DLINE_26
66
1
40
0.1499993333
41
0.1499993333
0
VERTEX
8
PART_TOP_2DLINE_26
10
-5.4999986667
20
3.1499986667
0
VERTEX
8
PART_TOP_2DLINE_26
10
-5.4999986667
20
-3.0999986667
0
VERTEX
8
PART_TOP_2DLINE_26
10
-5.3499993333
20
-3.0999986667
0
VERTEX
8
PART_TOP_2DLINE_26
10
-5.3499993333
20
3.0999986667
0
SEQEND
0
INSERT
2
SMOOTH_0$1499993333
8
PART_TOP_2DLINE_26
10
-5.4999986667
20
3.1499986667
0
INSERT
2
SMOOTH_0$1499993333
8
PART_TOP_2DLINE_26
10
-5.4999986667
20
-3.0999986667
0
INSERT
2
SMOOTH_0$1499993333
8
PART_TOP_2DLINE_26
10
-5.3499993333
20
-3.0999986667
0
INSERT
2
SMOOTH_0$1499993333
8
PART_TOP_2DLINE_26
10
-5.3499993333
20
3.0999986667
0
ENDBLK
0
BLOCK
2
STK_TOP_8
8
0
10
0
20
0
3
STK_TOP_8
70
64
0
INSERT
2
DRIL_HOLE_0
8
DRIL_NPLTE_THRU_01
10
0
20
0
0
INSERT
2
DRIL_HOLE_0
8
DRIL_NPLTE_THRU_02
10
0
20
0
0
INSERT
2
DRIL_HOLE_0
8
DRIL_NPLTE_THRU_03
10
0
20
0
0
INSERT
2
PAD_0
8
PADS_INNER
10
0
20
0
0
INSERT
2
PAD_0
8
PADS_BOT
10
0
20
0
0
INSERT
2
PAD_5
8
PADS_TOP
10
0
20
0
50
90
0
ENDBLK
0
BLOCK
2
PART_BODY_TOP_20
8
0
10
0
20
0
3
PART_BODY_TOP_20
70
64
0
POLYLINE
8
PART_TOP_2DLINE_24
66
1
40
0.1499993333
41
0.1499993333
0
VERTEX
8
PART_TOP_2DLINE_24
10
-14.200032
20
1.33622
42
-1.0922649407
0
VERTEX
8
PART_TOP_2DLINE_24
10
-13.3500313333
20
1.335478
42
1.0922649407
0
VERTEX
8
PART_TOP_2DLINE_24
10
-14.200032
20
1.33622
0
SEQEND
0
INSERT
2
SMOOTH_0$1499993333
8
PART_TOP_2DLINE_24
10
-14.200032
20
1.33622
0
INSERT
2
SMOOTH_0$1499993333
8
PART_TOP_2DLINE_24
10
-13.3500313333
20
1.335478
0
INSERT
2
SMOOTH_0$1499993333
8
PART_TOP_2DLINE_24
10
-14.200032
20
1.33622
0
POLYLINE
8
PART_TOP_2DLINE_24
66
1
40
0.1499993333
41
0.1499993333
70
1
0
VERTEX
8
PART_TOP_2DLINE_24
10
-14.2000006667
20
-1.162684
42
1.146321522
0
VERTEX
8
PART_TOP_2DLINE_24
10
-13.350002
20
-1.162684
42
-1.146321522
0
VERTEX
8
PART_TOP_2DLINE_24
10
-14.2000006667
20
-1.162684
0
VERTEX
8
PART_TOP_2DLINE_24
10
-14.1999993333
20
1.3358493333
0
SEQEND
0
INSERT
2
SMOOTH_0$1499993333
8
PART_TOP_2DLINE_24
10
-14.2000006667
20
-1.162684
0
INSERT
2
SMOOTH_0$1499993333
8
PART_TOP_2DLINE_24
10
-13.350002
20
-1.162684
0
INSERT
2
SMOOTH_0$1499993333
8
PART_TOP_2DLINE_24
10
-14.2000006667
20
-1.162684
0
INSERT
2
SMOOTH_0$1499993333
8
PART_TOP_2DLINE_24
10
-14.1999993333
20
1.3358493333
0
POLYLINE
8
PART_TOP_2DLINE_24
66
1
40
0.1499993333
41
0.1499993333
0
VERTEX
8
PART_TOP_2DLINE_24
10
-11.766966
20
4.599968
42
-1.0922649407
0
VERTEX
8
PART_TOP_2DLINE_24
10
-11.7662246667
20
5.4499686667
42
1.0922649407
0
VERTEX
8
PART_TOP_2DLINE_24
10
-11.766966
20
4.599968
0
SEQEND
0
INSERT
2
SMOOTH_0$1499993333
8
PART_TOP_2DLINE_24
10
-11.766966
20
4.599968
0
INSERT
2
SMOOTH_0$1499993333
8
PART_TOP_2DLINE_24
10
-11.7662246667
20
5.4499686667
0
INSERT
2
SMOOTH_0$1499993333
8
PART_TOP_2DLINE_24
10
-11.766966
20
4.599968
0
POLYLINE
8
PART_TOP_2DLINE_24
66
1
40
0.1499993333
41
0.1499993333
70
1
0
VERTEX
8
PART_TOP_2DLINE_24
10
-9.8000013333
20
4.5999993333
42
1.146321522
0
VERTEX
8
PART_TOP_2DLINE_24
10
-9.8000013333
20
5.4499973333
0
VERTEX
8
PART_TOP_2DLINE_24
10
-11.7665953333
20
5.4499986667
0
VERTEX
8
PART_TOP_2DLINE_24
10
-9.8000013333
20
5.4499973333
42
-1.146321522
0
SEQEND
0
INSERT
2
SMOOTH_0$1499993333
8
PART_TOP_2DLINE_24
10
-9.8000013333
20
4.5999993333
0
INSERT
2
SMOOTH_0$1499993333
8
PART_TOP_2DLINE_24
10
-9.8000013333
20
5.4499973333
0
INSERT
2
SMOOTH_0$1499993333
8
PART_TOP_2DLINE_24
10
-11.7665953333
20
5.4499986667
0
INSERT
2
SMOOTH_0$1499993333
8
PART_TOP_2DLINE_24
10
-9.8000013333
20
5.4499973333
0
POLYLINE
8
PART_TOP_2DLINE_24
66
1
40
0.1499993333
41
0.1499993333
70
1
0
VERTEX
8
PART_TOP_2DLINE_24
10
-7.3500306667
20
1.016226
42
1.0922649407
0
VERTEX
8
PART_TOP_2DLINE_24
10
-8.2000313333
20
1.0169673333
0
VERTEX
8
PART_TOP_2DLINE_24
10
-8.1999986667
20
-0.95
0
VERTEX
8
PART_TOP_2DLINE_24
10
-8.2000313333
20
1.0169673333
42
-1.0922649407
0
SEQEND
0
INSERT
2
SMOOTH_0$1499993333
8
PART_TOP_2DLINE_24
10
-7.3500306667
20
1.016226
0
INSERT
2
SMOOTH_0$1499993333
8
PART_TOP_2DLINE_24
10
-8.2000313333
20
1.0169673333
0
INSERT
2
SMOOTH_0$1499993333
8
PART_TOP_2DLINE_24
10
-8.1999986667
20
-0.95
0
INSERT
2
SMOOTH_0$1499993333
8
PART_TOP_2DLINE_24
10
-8.2000313333
20
1.0169673333
0
POLYLINE
8
PART_TOP_2DLINE_24
66
1
40
0.1499993333
41
0.1499993333
0
VERTEX
8
PART_TOP_2DLINE_24
10
-7.3500013333
20
-0.950002
42
-1.146321522
0
VERTEX
8
PART_TOP_2DLINE_24
10
-8.1999993333
20
-0.950002
42
1.146321522
0
VERTEX
8
PART_TOP_2DLINE_24
10
-7.3500013333
20
-0.950002
0
SEQEND
0
INSERT
2
SMOOTH_0$1499993333
8
PART_TOP_2DLINE_24
10
-7.3500013333
20
-0.950002
0
INSERT
2
SMOOTH_0$1499993333
8
PART_TOP_2DLINE_24
10
-8.1999993333
20
-0.950002
0
INSERT
2
SMOOTH_0$1499993333
8
PART_TOP_2DLINE_24
10
-7.3500013333
20
-0.950002
0
POLYLINE
8
PART_TOP_2DLINE_26
66
1
40
0.254
41
0.254
0
VERTEX
8
PART_TOP_2DLINE_26
10
-7.8959986667
20
5.08
0
VERTEX
8
PART_TOP_2DLINE_26
10
0
20
5.08
0
VERTEX
8
PART_TOP_2DLINE_26
10
0
20
-4.445
0
VERTEX
8
PART_TOP_2DLINE_26
10
-3.7049986667
20
-4.445
0
VERTEX
8
PART_TOP_2DLINE_26
10
-14.8000006667
20
-4.445
0
VERTEX
8
PART_TOP_2DLINE_26
10
-14.8000006667
20
-2.54
0
SEQEND
0
INSERT
2
SMOOTH_0$254
8
PART_TOP_2DLINE_26
10
-7.8959986667
20
5.08
0
INSERT
2
SMOOTH_0$254
8
PART_TOP_2DLINE_26
10
0
20
5.08
0
INSERT
2
SMOOTH_0$254
8
PART_TOP_2DLINE_26
10
0
20
-4.445
0
INSERT
2
SMOOTH_0$254
8
PART_TOP_2DLINE_26
10
-3.7049986667
20
-4.445
0
POLYLINE
8
PART_TOP_2DLINE_26
66
1
40
0.254
41
0.254
0
VERTEX
8
PART_TOP_2DLINE_26
10
-13.4839986667
20
5.08
0
VERTEX
8
PART_TOP_2DLINE_26
10
-14.8000006667
20
5.08
0
VERTEX
8
PART_TOP_2DLINE_26
10
-14.8000006667
20
2.54
0
SEQEND
0
INSERT
2
SMOOTH_0$254
8
PART_TOP_2DLINE_26
10
-13.4839986667
20
5.08
0
INSERT
2
SMOOTH_0$254
8
PART_TOP_2DLINE_26
10
-14.8000006667
20
5.08
0
INSERT
2
SMOOTH_0$254
8
PART_TOP_2DLINE_26
10
-14.8000006667
20
2.54
0
POLYLINE
8
PART_TOP_2DLINE_26
66
1
40
0.254
41
0.254
0
VERTEX
8
PART_TOP_2DLINE_26
10
-3.7049986667
20
-4.445
0
VERTEX
8
PART_TOP_2DLINE_26
10
-3.7049986667
20
0
0
VERTEX
8
PART_TOP_2DLINE_26
10
-3.7049986667
20
5.08
0
SEQEND
0
INSERT
2
SMOOTH_0$254
8
PART_TOP_2DLINE_26
10
-3.7049986667
20
-4.445
0
INSERT
2
SMOOTH_0$254
8
PART_TOP_2DLINE_26
10
-3.7049986667
20
0
0
POLYLINE
8
PART_TOP_2DLINE_24
66
1
40
0.1499993333
41
0.1499993333
0
VERTEX
8
PART_TOP_2DLINE_24
10
-13.3500006667
20
-1.162682
0
VERTEX
8
PART_TOP_2DLINE_24
10
-13.3500006667
20
1.3358493333
0
VERTEX
8
PART_TOP_2DLINE_24
10
-13.3500006667
20
-1.162682
0
SEQEND
0
INSERT
2
SMOOTH_0$1499993333
8
PART_TOP_2DLINE_24
10
-13.3500006667
20
-1.162682
0
INSERT
2
SMOOTH_0$1499993333
8
PART_TOP_2DLINE_24
10
-13.3500006667
20
1.3358493333
0
INSERT
2
SMOOTH_0$1499993333
8
PART_TOP_2DLINE_24
10
-13.3500006667
20
-1.162682
0
POLYLINE
8
PART_TOP_2DLINE_24
66
1
40
0.1499993333
41
0.1499993333
0
VERTEX
8
PART_TOP_2DLINE_24
10
-9.8000006667
20
4.6000006667
0
VERTEX
8
PART_TOP_2DLINE_24
10
-11.7665953333
20
4.6000006667
0
VERTEX
8
PART_TOP_2DLINE_24
10
-9.8000006667
20
4.6000006667
0
SEQEND
0
INSERT
2
SMOOTH_0$1499993333
8
PART_TOP_2DLINE_24
10
-9.8000006667
20
4.6000006667
0
INSERT
2
SMOOTH_0$1499993333
8
PART_TOP_2DLINE_24
10
-11.7665953333
20
4.6000006667
0
INSERT
2
SMOOTH_0$1499993333
8
PART_TOP_2DLINE_24
10
-9.8000006667
20
4.6000006667
0
POLYLINE
8
PART_TOP_2DLINE_24
66
1
40
0.1499993333
41
0.1499993333
0
VERTEX
8
PART_TOP_2DLINE_24
10
-7.35
20
1.0165966667
0
VERTEX
8
PART_TOP_2DLINE_24
10
-7.35
20
-0.95
0
VERTEX
8
PART_TOP_2DLINE_24
10
-7.35
20
1.0165966667
0
SEQEND
0
INSERT
2
SMOOTH_0$1499993333
8
PART_TOP_2DLINE_24
10
-7.35
20
1.0165966667
0
INSERT
2
SMOOTH_0$1499993333
8
PART_TOP_2DLINE_24
10
-7.35
20
-0.95
0
INSERT
2
SMOOTH_0$1499993333
8
PART_TOP_2DLINE_24
10
-7.35
20
1.0165966667
0
POLYLINE
8
KEEPOUT_00
6
KEEPOUT_10010100$0
66
1
70
1
0
VERTEX
8
KEEPOUT_00
10
-13.3999993333
20
1.250002
42
1
0
VERTEX
8
KEEPOUT_00
10
-13.25
20
1.250002
42
1
0
VERTEX
8
KEEPOUT_00
10
-14.3999973333
20
1.250002
42
1
0
VERTEX
8
KEEPOUT_00
10
-14.249998
20
1.250002
42
-1
0
SEQEND
0
POLYLINE
8
KEEPOUT_00
6
KEEPOUT_10010100$0
66
1
70
1
0
VERTEX
8
KEEPOUT_00
10
-14.2500006667
20
-1.25
42
1
0
VERTEX
8
KEEPOUT_00
10
-14.4
20
-1.25
42
1
0
VERTEX
8
KEEPOUT_00
10
-13.2500026667
20
-1.25
42
1
0
VERTEX
8
KEEPOUT_00
10
-13.400002
20
-1.25
42
-1
0
SEQEND
0
POLYLINE
8
KEEPOUT_00
6
KEEPOUT_10010100$0
66
1
70
1
0
VERTEX
8
KEEPOUT_00
10
-11.775
20
5.4
42
1
0
VERTEX
8
KEEPOUT_00
10
-11.775
20
5.55
42
1
0
VERTEX
8
KEEPOUT_00
10
-11.775
20
4.400002
42
1
0
VERTEX
8
KEEPOUT_00
10
-11.775
20
4.550002
42
-1
0
SEQEND
0
POLYLINE
8
KEEPOUT_00
6
KEEPOUT_10010100$0
66
1
70
1
0
VERTEX
8
KEEPOUT_00
10
-9.7749993333
20
4.550002
42
1
0
VERTEX
8
KEEPOUT_00
10
-9.7749993333
20
4.400002
42
1
0
VERTEX
8
KEEPOUT_00
10
-9.7749993333
20
5.55
42
1
0
VERTEX
8
KEEPOUT_00
10
-9.7749993333
20
5.4
42
-1
0
SEQEND
0
POLYLINE
8
KEEPOUT_00
6
KEEPOUT_10010100$0
66
1
70
1
0
VERTEX
8
KEEPOUT_00
10
-8.1999973333
20
-0.95
42
1
0
VERTEX
8
KEEPOUT_00
10
-8.3499966667
20
-0.95
42
1
0
VERTEX
8
KEEPOUT_00
10
-7.1999993333
20
-0.95
42
1
0
VERTEX
8
KEEPOUT_00
10
-7.3499986667
20
-0.95
42
-1
0
SEQEND
0
POLYLINE
8
KEEPOUT_00
6
KEEPOUT_10010100$0
66
1
70
1
0
VERTEX
8
KEEPOUT_00
10
-7.3499986667
20
1.05
42
1
0
VERTEX
8
KEEPOUT_00
10
-7.1999993333
20
1.05
42
1
0
VERTEX
8
KEEPOUT_00
10
-8.3499966667
20
1.05
42
1
0
VERTEX
8
KEEPOUT_00
10
-8.1999973333
20
1.05
42
-1
0
SEQEND
0
POLYLINE
8
KEEPOUT_00
6
KEEPOUT_10010100$0
66
1
70
1
0
VERTEX
8
KEEPOUT_00
10
-13.2500026667
20
1.25
42
1
0
VERTEX
8
KEEPOUT_00
10
-13.400002
20
1.25
0
VERTEX
8
KEEPOUT_00
10
-13.400002
20
-1.25
42
1
0
VERTEX
8
KEEPOUT_00
10
-13.2500026667
20
-1.25
0
SEQEND
0
POLYLINE
8
KEEPOUT_00
6
KEEPOUT_10010100$0
66
1
70
1
0
VERTEX
8
KEEPOUT_00
10
-14.2500006667
20
1.25
42
1
0
VERTEX
8
KEEPOUT_00
10
-14.4
20
1.25
0
VERTEX
8
KEEPOUT_00
10
-14.4
20
-1.25
42
1
0
VERTEX
8
KEEPOUT_00
10
-14.2500006667
20
-1.25
0
SEQEND
0
POLYLINE
8
KEEPOUT_00
6
KEEPOUT_10010100$0
66
1
70
1
0
VERTEX
8
KEEPOUT_00
10
-9.7749993333
20
5.4
42
1
0
VERTEX
8
KEEPOUT_00
10
-9.7749993333
20
5.55
0
VERTEX
8
KEEPOUT_00
10
-11.775
20
5.55
42
1
0
VERTEX
8
KEEPOUT_00
10
-11.775
20
5.4
0
SEQEND
0
POLYLINE
8
KEEPOUT_00
6
KEEPOUT_10010100$0
66
1
70
1
0
VERTEX
8
KEEPOUT_00
10
-9.7749993333
20
4.400002
42
1
0
VERTEX
8
KEEPOUT_00
10
-9.7749993333
20
4.550002
0
VERTEX
8
KEEPOUT_00
10
-11.775
20
4.550002
42
1
0
VERTEX
8
KEEPOUT_00
10
-11.775
20
4.400002
0
SEQEND
0
POLYLINE
8
KEEPOUT_00
6
KEEPOUT_10010100$0
66
1
70
1
0
VERTEX
8
KEEPOUT_00
10
-8.1999973333
20
1.05
42
1
0
VERTEX
8
KEEPOUT_00
10
-8.3499966667
20
1.05
0
VERTEX
8
KEEPOUT_00
10
-8.3499966667
20
-0.95
42
1
0
VERTEX
8
KEEPOUT_00
10
-8.1999973333
20
-0.95
0
SEQEND
0
POLYLINE
8
KEEPOUT_00
6
KEEPOUT_10010100$0
66
1
70
1
0
VERTEX
8
KEEPOUT_00
10
-7.1999993333
20
1.05
42
1
0
VERTEX
8
KEEPOUT_00
10
-7.3499986667
20
1.05
0
VERTEX
8
KEEPOUT_00
10
-7.3499986667
20
-0.95
42
1
0
VERTEX
8
KEEPOUT_00
10
-7.1999993333
20
-0.95
0
SEQEND
0
ENDBLK
0
BLOCK
2
STK_TOP_9
8
0
10
0
20
0
3
STK_TOP_9
70
64
0
INSERT
2
DRIL_SLOT_0003900137000000000
8
DRIL_PLTE_THRU_01
10
0
20
0
0
INSERT
2
DRIL_SLOT_0003900137000000000
8
DRIL_PLTE_THRU_02
10
0
20
0
0
INSERT
2
DRIL_SLOT_0003900137000000000
8
DRIL_PLTE_THRU_03
10
0
20
0
0
INSERT
2
PAD_6
8
PADS_INNER
10
0
20
0
50
90
0
INSERT
2
PAD_6
8
PADS_BOT
10
0
20
0
50
90
0
INSERT
2
PAD_6
8
PADS_TOP
10
0
20
0
50
90
0
ENDBLK
0
BLOCK
2
STK_TOP_10
8
0
10
0
20
0
3
STK_TOP_10
70
64
0
INSERT
2
DRIL_SLOT_0003900118000000000
8
DRIL_PLTE_THRU_01
10
0
20
0
0
INSERT
2
DRIL_SLOT_0003900118000000000
8
DRIL_PLTE_THRU_02
10
0
20
0
0
INSERT
2
DRIL_SLOT_0003900118000000000
8
DRIL_PLTE_THRU_03
10
0
20
0
0
INSERT
2
PAD_6
8
PADS_INNER
10
0
20
0
50
90
0
INSERT
2
PAD_6
8
PADS_BOT
10
0
20
0
50
90
0
INSERT
2
PAD_6
8
PADS_TOP
10
0
20
0
50
90
0
ENDBLK
0
BLOCK
2
STK_TOP_11
8
0
10
0
20
0
3
STK_TOP_11
70
64
0
INSERT
2
DRIL_SLOT_0003900118000000000
8
DRIL_PLTE_THRU_01
10
0
20
0
0
INSERT
2
DRIL_SLOT_0003900118000000000
8
DRIL_PLTE_THRU_02
10
0
20
0
0
INSERT
2
DRIL_SLOT_0003900118000000000
8
DRIL_PLTE_THRU_03
10
0
20
0
0
INSERT
2
PAD_6
8
PADS_INNER
10
0
20
0
0
INSERT
2
PAD_6
8
PADS_BOT
10
0
20
0
0
INSERT
2
PAD_6
8
PADS_TOP
10
0
20
0
0
ENDBLK
0
BLOCK
2
PART_BODY_TOP_21
8
0
10
0
20
0
3
PART_BODY_TOP_21
70
64
0
POLYLINE
8
PART_TOP_2DLINE_26
66
1
40
0.1499993333
41
0.1499993333
0
VERTEX
8
PART_TOP_2DLINE_26
10
0
20
0
0
VERTEX
8
PART_TOP_2DLINE_26
10
0
20
2.9999986667
0
SEQEND
0
INSERT
2
SMOOTH_0$1499993333
8
PART_TOP_2DLINE_26
10
0
20
0
0
INSERT
2
SMOOTH_0$1499993333
8
PART_TOP_2DLINE_26
10
0
20
2.9999986667
0
POLYLINE
8
PART_TOP_2DLINE_26
66
1
40
0.1499993333
41
0.1499993333
0
VERTEX
8
PART_TOP_2DLINE_26
10
6.4999993333
20
4.2999986667
0
VERTEX
8
PART_TOP_2DLINE_26
10
6.4999993333
20
0
0
VERTEX
8
PART_TOP_2DLINE_26
10
-6.4999993333
20
0
0
VERTEX
8
PART_TOP_2DLINE_26
10
-6.4999993333
20
4.3999986667
0
SEQEND
0
INSERT
2
SMOOTH_0$1499993333
8
PART_TOP_2DLINE_26
10
6.4999993333
20
4.2999986667
0
INSERT
2
SMOOTH_0$1499993333
8
PART_TOP_2DLINE_26
10
6.4999993333
20
0
0
INSERT
2
SMOOTH_0$1499993333
8
PART_TOP_2DLINE_26
10
-6.4999993333
20
0
0
INSERT
2
SMOOTH_0$1499993333
8
PART_TOP_2DLINE_26
10
-6.4999993333
20
4.3999986667
0
POLYLINE
8
PART_TOP_2DLINE_26
66
1
40
0.1499993333
41
0.1499993333
70
1
0
VERTEX
8
PART_TOP_2DLINE_26
10
-7.5
20
14.6500006667
0
VERTEX
8
PART_TOP_2DLINE_26
10
-5
20
17.5749986667
0
VERTEX
8
PART_TOP_2DLINE_26
10
-5
20
17.5
0
VERTEX
8
PART_TOP_2DLINE_26
10
5
20
17.5
0
VERTEX
8
PART_TOP_2DLINE_26
10
7.5
20
14.6500006667
0
VERTEX
8
PART_TOP_2DLINE_26
10
7.5
20
4.3999986667
0
VERTEX
8
PART_TOP_2DLINE_26
10
-7.5
20
4.3999986667
0
SEQEND
0
INSERT
2
SMOOTH_0$1499993333
8
PART_TOP_2DLINE_26
10
-7.5
20
14.6500006667
0
INSERT
2
SMOOTH_0$1499993333
8
PART_TOP_2DLINE_26
10
-5
20
17.5749986667
0
INSERT
2
SMOOTH_0$1499993333
8
PART_TOP_2DLINE_26
10
-5
20
17.5
0
INSERT
2
SMOOTH_0$1499993333
8
PART_TOP_2DLINE_26
10
5
20
17.5
0
INSERT
2
SMOOTH_0$1499993333
8
PART_TOP_2DLINE_26
10
7.5
20
14.6500006667
0
INSERT
2
SMOOTH_0$1499993333
8
PART_TOP_2DLINE_26
10
7.5
20
4.3999986667
0
INSERT
2
SMOOTH_0$1499993333
8
PART_TOP_2DLINE_26
10
-7.5
20
4.3999986667
0
POLYLINE
8
KEEPOUT_00
6
KEEPOUT_10010100$0
66
1
70
1
0
VERTEX
8
KEEPOUT_00
10
3.0756173333
20
15.853766
42
0.9991277159
0
VERTEX
8
KEEPOUT_00
10
3.2235766667
20
15.8784246667
42
0.8228717722
0
VERTEX
8
KEEPOUT_00
10
2.5859506667
20
15.8964473333
42
1
0
VERTEX
8
KEEPOUT_00
10
2.7322806667
20
15.86347
42
-0.8228717722
0
SEQEND
0
POLYLINE
8
KEEPOUT_00
6
KEEPOUT_10010100$0
66
1
70
1
0
VERTEX
8
KEEPOUT_00
10
2.72835
20
13.8594
42
1
0
VERTEX
8
KEEPOUT_00
10
2.5795333333
20
13.8406
42
0.8816185924
0
VERTEX
8
KEEPOUT_00
10
3.2244066667
20
13.8406
42
1
0
VERTEX
8
KEEPOUT_00
10
3.07559
20
13.8594
42
-0.8816185924
0
SEQEND
0
POLYLINE
8
KEEPOUT_00
6
KEEPOUT_10010100$0
66
1
70
1
0
VERTEX
8
KEEPOUT_00
10
-3.0716473333
20
13.8594
42
1
0
VERTEX
8
KEEPOUT_00
10
-3.2204646667
20
13.8406
42
0.8816185924
0
VERTEX
8
KEEPOUT_00
10
-2.5755913333
20
13.8406
42
1
0
VERTEX
8
KEEPOUT_00
10
-2.724408
20
13.8594
42
-0.8816185924
0
SEQEND
0
POLYLINE
8
KEEPOUT_00
6
KEEPOUT_10010100$0
66
1
70
1
0
VERTEX
8
KEEPOUT_00
10
-2.7243806667
20
15.853766
42
0.9991277159
0
VERTEX
8
KEEPOUT_00
10
-2.5764213333
20
15.8784246667
42
0.8228717722
0
VERTEX
8
KEEPOUT_00
10
-3.2140473333
20
15.8964473333
42
1
0
VERTEX
8
KEEPOUT_00
10
-3.0677173333
20
15.86347
42
-0.8228717722
0
SEQEND
0
POLYLINE
8
KEEPOUT_00
6
KEEPOUT_10010100$0
66
1
70
1
0
VERTEX
8
KEEPOUT_00
10
-2.6716486667
20
10.3093993333
42
1
0
VERTEX
8
KEEPOUT_00
10
-2.8204653333
20
10.2905993333
42
0.8816185924
0
VERTEX
8
KEEPOUT_00
10
-2.175592
20
10.2905993333
42
1
0
VERTEX
8
KEEPOUT_00
10
-2.3244086667
20
10.3093993333
42
-0.8816185924
0
SEQEND
0
POLYLINE
8
KEEPOUT_00
6
KEEPOUT_10010100$0
66
1
70
1
0
VERTEX
8
KEEPOUT_00
10
-2.3243813333
20
12.3037653333
42
0.9991277159
0
VERTEX
8
KEEPOUT_00
10
-2.176422
20
12.3284246667
42
0.8228717722
0
VERTEX
8
KEEPOUT_00
10
-2.814048
20
12.3464466667
42
1
0
VERTEX
8
KEEPOUT_00
10
-2.667718
20
12.31347
42
-0.8228717722
0
SEQEND
0
POLYLINE
8
KEEPOUT_00
6
KEEPOUT_10010100$0
66
1
70
1
0
VERTEX
8
KEEPOUT_00
10
2.3283513333
20
10.3093993333
42
1
0
VERTEX
8
KEEPOUT_00
10
2.179534
20
10.2905993333
42
0.8816185924
0
VERTEX
8
KEEPOUT_00
10
2.8244073333
20
10.2905993333
42
1
0
VERTEX
8
KEEPOUT_00
10
2.6755906667
20
10.3093993333
42
-0.8816185924
0
SEQEND
0
POLYLINE
8
KEEPOUT_00
6
KEEPOUT_10010100$0
66
1
70
1
0
VERTEX
8
KEEPOUT_00
10
2.675618
20
12.3037653333
42
0.9991277159
0
VERTEX
8
KEEPOUT_00
10
2.8235773333
20
12.3284246667
42
0.8228717722
0
VERTEX
8
KEEPOUT_00
10
2.1859513333
20
12.3464466667
42
1
0
VERTEX
8
KEEPOUT_00
10
2.3322813333
20
12.31347
42
-0.8228717722
0
SEQEND
0
POLYLINE
8
KEEPOUT_00
6
KEEPOUT_10010100$0
66
1
70
1
0
VERTEX
8
KEEPOUT_00
10
0.740734
20
5.177562
42
1
0
VERTEX
8
KEEPOUT_00
10
0.759534
20
5.0287453333
42
0.8816185924
0
VERTEX
8
KEEPOUT_00
10
0.759534
20
5.9712526667
42
1
0
VERTEX
8
KEEPOUT_00
10
0.740734
20
5.8224353333
42
-0.8816185924
0
SEQEND
0
POLYLINE
8
KEEPOUT_00
6
KEEPOUT_10010100$0
66
1
70
1
0
VERTEX
8
KEEPOUT_00
10
-0.7534286667
20
5.8205766667
42
0.9991277159
0
VERTEX
8
KEEPOUT_00
10
-0.7780873333
20
5.9685353333
42
0.8228717722
0
VERTEX
8
KEEPOUT_00
10
-0.8044273333
20
5.0366206667
42
0.9982561921
0
VERTEX
8
KEEPOUT_00
10
-0.7714506667
20
5.1829506667
42
-0.8228717722
0
SEQEND
0
POLYLINE
8
KEEPOUT_00
6
KEEPOUT_10010100$0
66
1
70
1
0
VERTEX
8
KEEPOUT_00
10
3.0749986667
20
13.85
42
1
0
VERTEX
8
KEEPOUT_00
10
3.224998
20
13.85
0
VERTEX
8
KEEPOUT_00
10
3.224998
20
15.8499986667
42
1
0
VERTEX
8
KEEPOUT_00
10
3.0749986667
20
15.8499986667
0
SEQEND
0
POLYLINE
8
KEEPOUT_00
6
KEEPOUT_10010100$0
66
1
70
1
0
VERTEX
8
KEEPOUT_00
10
2.5749993333
20
13.85
42
1
0
VERTEX
8
KEEPOUT_00
10
2.7249993333
20
13.85
0
VERTEX
8
KEEPOUT_00
10
2.7249993333
20
15.8499986667
42
1
0
VERTEX
8
KEEPOUT_00
10
2.5749993333
20
15.8499986667
0
SEQEND
0
POLYLINE
8
KEEPOUT_00
6
KEEPOUT_10010100$0
66
1
70
1
0
VERTEX
8
KEEPOUT_00
10
-3.224998
20
13.85
42
1
0
VERTEX
8
KEEPOUT_00
10
-3.0749986667
20
13.85
0
VERTEX
8
KEEPOUT_00
10
-3.0749986667
20
15.8499986667
42
1
0
VERTEX
8
KEEPOUT_00
10
-3.224998
20
15.8499986667
0
SEQEND
0
POLYLINE
8
KEEPOUT_00
6
KEEPOUT_10010100$0
66
1
70
1
0
VERTEX
8
KEEPOUT_00
10
-2.7249993333
20
13.85
42
1
0
VERTEX
8
KEEPOUT_00
10
-2.5749993333
20
13.85
0
VERTEX
8
KEEPOUT_00
10
-2.5749993333
20
15.8499986667
42
1
0
VERTEX
8
KEEPOUT_00
10
-2.7249993333
20
15.8499986667
0
SEQEND
0
POLYLINE
8
KEEPOUT_00
6
KEEPOUT_10010100$0
66
1
70
1
0
VERTEX
8
KEEPOUT_00
10
-2.8249993333
20
10.2999993333
42
1
0
VERTEX
8
KEEPOUT_00
10
-2.6749993333
20
10.2999993333
0
VERTEX
8
KEEPOUT_00
10
-2.6749993333
20
12.299998
42
1
0
VERTEX
8
KEEPOUT_00
10
-2.8249993333
20
12.299998
0
SEQEND
0
POLYLINE
8
KEEPOUT_00
6
KEEPOUT_10010100$0
66
1
70
1
0
VERTEX
8
KEEPOUT_00
10
-2.325
20
10.2999993333
42
1
0
VERTEX
8
KEEPOUT_00
10
-2.1750006667
20
10.2999993333
0
VERTEX
8
KEEPOUT_00
10
-2.1750006667
20
12.299998
42
1
0
VERTEX
8
KEEPOUT_00
10
-2.325
20
12.299998
0
SEQEND
0
POLYLINE
8
KEEPOUT_00
6
KEEPOUT_10010100$0
66
1
70
1
0
VERTEX
8
KEEPOUT_00
10
2.1750006667
20
10.2999993333
42
1
0
VERTEX
8
KEEPOUT_00
10
2.325
20
10.2999993333
0
VERTEX
8
KEEPOUT_00
10
2.325
20
12.299998
42
1
0
VERTEX
8
KEEPOUT_00
10
2.1750006667
20
12.299998
0
SEQEND
0
POLYLINE
8
KEEPOUT_00
6
KEEPOUT_10010100$0
66
1
70
1
0
VERTEX
8
KEEPOUT_00
10
2.6749993333
20
10.2999993333
42
1
0
VERTEX
8
KEEPOUT_00
10
2.8249993333
20
10.2999993333
0
VERTEX
8
KEEPOUT_00
10
2.8249993333
20
12.299998
42
1
0
VERTEX
8
KEEPOUT_00
10
2.6749993333
20
12.299998
0
SEQEND
0
POLYLINE
8
KEEPOUT_00
6
KEEPOUT_10010100$0
66
1
70
1
0
VERTEX
8
KEEPOUT_00
10
0.7500006667
20
5.025
42
1
0
VERTEX
8
KEEPOUT_00
10
0.7500006667
20
5.1749993333
0
VERTEX
8
KEEPOUT_00
10
-0.7500006667
20
5.1749993333
42
1
0
VERTEX
8
KEEPOUT_00
10
-0.7500006667
20
5.025
0
SEQEND
0
POLYLINE
8
KEEPOUT_00
6
KEEPOUT_10010100$0
66
1
70
1
0
VERTEX
8
KEEPOUT_00
10
0.7500006667
20
5.8250006667
42
1
0
VERTEX
8
KEEPOUT_00
10
0.7500006667
20
5.9750006667
0
VERTEX
8
KEEPOUT_00
10
-0.7500006667
20
5.9750006667
42
1
0
VERTEX
8
KEEPOUT_00
10
-0.7500006667
20
5.8250006667
0
SEQEND
0
ENDBLK
0
BLOCK
2
STK_TOP_12
8
0
10
0
20
0
3
STK_TOP_12
70
64
0
INSERT
2
DRIL_HOLE_0$5999986667
8
DRIL_PLTE_THRU_01
10
0
20
0
0
INSERT
2
DRIL_HOLE_0$5999986667
8
DRIL_PLTE_THRU_02
10
0
20
0
0
INSERT
2
DRIL_HOLE_0$5999986667
8
DRIL_PLTE_THRU_03
10
0
20
0
0
INSERT
2
PAD_7
8
PADS_INNER
10
0
20
0
50
90
0
INSERT
2
PAD_7
8
PADS_BOT
10
0
20
0
50
90
0
INSERT
2
PAD_7
8
PADS_TOP
10
0
20
0
50
90
0
ENDBLK
0
BLOCK
2
STK_TOP_13
8
0
10
0
20
0
3
STK_TOP_13
70
64
0
INSERT
2
DRIL_HOLE_1$6999986667
8
DRIL_PLTE_THRU_01
10
0
20
0
0
INSERT
2
DRIL_HOLE_1$6999986667
8
DRIL_PLTE_THRU_02
10
0
20
0
0
INSERT
2
DRIL_HOLE_1$6999986667
8
DRIL_PLTE_THRU_03
10
0
20
0
0
INSERT
2
PAD_8
8
PADS_INNER
10
0
20
0
0
INSERT
2
PAD_8
8
PADS_BOT
10
0
20
0
0
INSERT
2
PAD_8
8
PADS_TOP
10
0
20
0
0
ENDBLK
0
BLOCK
2
STK_TOP_14
8
0
10
0
20
0
3
STK_TOP_14
70
64
0
INSERT
2
DRIL_HOLE_1
8
DRIL_PLTE_THRU_01
10
0
20
0
0
INSERT
2
DRIL_HOLE_1
8
DRIL_PLTE_THRU_02
10
0
20
0
0
INSERT
2
DRIL_HOLE_1
8
DRIL_PLTE_THRU_03
10
0
20
0
0
INSERT
2
PAD_9
8
PADS_INNER
10
0
20
0
0
INSERT
2
PAD_9
8
PADS_BOT
10
0
20
0
0
INSERT
2
PAD_9
8
PADS_TOP
10
0
20
0
0
ENDBLK
0
BLOCK
2
PART_BODY_TOP_22
8
0
10
0
20
0
3
PART_BODY_TOP_22
70
64
0
POLYLINE
8
PART_TOP_2DLINE_26
66
1
40
0.2032
41
0.2032
0
VERTEX
8
PART_TOP_2DLINE_26
10
6.0000006667
20
2.8999986667
0
VERTEX
8
PART_TOP_2DLINE_26
10
6.0000006667
20
6.0000006667
0
VERTEX
8
PART_TOP_2DLINE_26
10
0
20
6.0000006667
0
VERTEX
8
PART_TOP_2DLINE_26
10
-6.0000006667
20
6.0000006667
0
VERTEX
8
PART_TOP_2DLINE_26
10
-6.0000006667
20
2.8999986667
0
SEQEND
0
INSERT
2
SMOOTH_0$2032
8
PART_TOP_2DLINE_26
10
6.0000006667
20
2.8999986667
0
INSERT
2
SMOOTH_0$2032
8
PART_TOP_2DLINE_26
10
6.0000006667
20
6.0000006667
0
INSERT
2
SMOOTH_0$2032
8
PART_TOP_2DLINE_26
10
0
20
6.0000006667
0
POLYLINE
8
PART_TOP_2DLINE_26
66
1
40
0.2032
41
0.2032
0
VERTEX
8
PART_TOP_2DLINE_26
10
6.0000006667
20
-2.8999986667
0
VERTEX
8
PART_TOP_2DLINE_26
10
6.0000006667
20
-6.0000006667
0
VERTEX
8
PART_TOP_2DLINE_26
10
-6.0000006667
20
-6.0000006667
0
VERTEX
8
PART_TOP_2DLINE_26
10
-6.0000006667
20
-2.8999986667
0
SEQEND
0
INSERT
2
SMOOTH_0$2032
8
PART_TOP_2DLINE_26
10
6.0000006667
20
-2.8999986667
0
INSERT
2
SMOOTH_0$2032
8
PART_TOP_2DLINE_26
10
6.0000006667
20
-6.0000006667
0
INSERT
2
SMOOTH_0$2032
8
PART_TOP_2DLINE_26
10
-6.0000006667
20
-6.0000006667
0
INSERT
2
SMOOTH_0$2032
8
PART_TOP_2DLINE_26
10
-6.0000006667
20
-2.8999986667
0
ENDBLK
0
BLOCK
2
STK_TOP_15
8
0
10
0
20
0
3
STK_TOP_15
70
64
0
INSERT
2
DRIL_HOLE_0
8
DRIL_PLTE_THRU_01
10
0
20
0
0
INSERT
2
DRIL_HOLE_0
8
DRIL_PLTE_THRU_02
10
0
20
0
0
INSERT
2
DRIL_HOLE_0
8
DRIL_PLTE_THRU_03
10
0
20
0
0
INSERT
2
PAD_0
8
PADS_INNER
10
0
20
0
0
INSERT
2
PAD_0
8
PADS_BOT
10
0
20
0
0
INSERT
2
PAD_10
8
PADS_TOP
10
0
20
0
50
90
0
ENDBLK
0
BLOCK
2
PART_BODY_TOP_23
8
0
10
0
20
0
3
PART_BODY_TOP_23
70
64
0
POLYLINE
8
PART_TOP_2DLINE_26
66
1
40
0.2032
41
0.2032
70
1
0
VERTEX
8
PART_TOP_2DLINE_26
10
-1.5748
20
-0.762
0
VERTEX
8
PART_TOP_2DLINE_26
10
-1.5748
20
0.762
0
VERTEX
8
PART_TOP_2DLINE_26
10
1.5748
20
0.762
0
VERTEX
8
PART_TOP_2DLINE_26
10
1.5748
20
-0.762
0
SEQEND
0
INSERT
2
SMOOTH_0$2032
8
PART_TOP_2DLINE_26
10
-1.5748
20
-0.762
0
INSERT
2
SMOOTH_0$2032
8
PART_TOP_2DLINE_26
10
-1.5748
20
0.762
0
INSERT
2
SMOOTH_0$2032
8
PART_TOP_2DLINE_26
10
1.5748
20
0.762
0
INSERT
2
SMOOTH_0$2032
8
PART_TOP_2DLINE_26
10
1.5748
20
-0.762
0
ENDBLK
0
BLOCK
2
PART_BODY_TOP_24
8
0
10
0
20
0
3
PART_BODY_TOP_24
70
64
0
POLYLINE
8
PART_TOP_2DLINE_26
66
1
40
0.1499993333
41
0.1499993333
70
1
0
VERTEX
8
PART_TOP_2DLINE_26
10
0.8000006667
20
0
42
1
0
VERTEX
8
PART_TOP_2DLINE_26
10
-0.8000006667
20
0
42
1
0
SEQEND
0
ENDBLK
0
BLOCK
2
STK_TOP_16
8
0
10
0
20
0
3
STK_TOP_16
70
64
0
INSERT
2
DRIL_HOLE_1
8
DRIL_PLTE_THRU_01
10
0
20
0
0
INSERT
2
DRIL_HOLE_1
8
DRIL_PLTE_THRU_02
10
0
20
0
0
INSERT
2
DRIL_HOLE_1
8
DRIL_PLTE_THRU_03
10
0
20
0
0
INSERT
2
PAD_11
8
PADS_INNER
10
0
20
0
0
INSERT
2
PAD_11
8
PADS_BOT
10
0
20
0
0
INSERT
2
PAD_11
8
PADS_TOP
10
0
20
0
0
ENDBLK
0
BLOCK
2
PART_BODY_TOP_25
8
0
10
0
20
0
3
PART_BODY_TOP_25
70
64
0
POLYLINE
8
PART_TOP_2DLINE_26
66
1
40
0.1778
41
0.1778
70
1
0
VERTEX
8
PART_TOP_2DLINE_26
10
-1.651
20
-0.889
42
1
0
VERTEX
8
PART_TOP_2DLINE_26
10
-2.286
20
-0.889
42
1
0
SEQEND
0
POLYLINE
8
PART_TOP_2DLINE_26
66
1
40
0.1778
41
0.1778
70
1
0
VERTEX
8
PART_TOP_2DLINE_26
10
-2.45
20
-1.651
0
VERTEX
8
PART_TOP_2DLINE_26
10
2.45
20
-1.651
0
VERTEX
8
PART_TOP_2DLINE_26
10
2.45
20
1.651
0
VERTEX
8
PART_TOP_2DLINE_26
10
-2.45
20
1.651
0
SEQEND
0
INSERT
2
SMOOTH_0$1778
8
PART_TOP_2DLINE_26
10
-2.45
20
-1.651
0
INSERT
2
SMOOTH_0$1778
8
PART_TOP_2DLINE_26
10
2.45
20
-1.651
0
INSERT
2
SMOOTH_0$1778
8
PART_TOP_2DLINE_26
10
2.45
20
1.651
0
INSERT
2
SMOOTH_0$1778
8
PART_TOP_2DLINE_26
10
-2.45
20
1.651
0
POLYLINE
8
PART_TOP_2DLINE_26
66
1
40
0.254
41
0.254
0
VERTEX
8
PART_TOP_2DLINE_26
10
-2.7999993333
20
-1.5999993333
0
VERTEX
8
PART_TOP_2DLINE_26
10
-2.7999993333
20
1.5999993333
0
SEQEND
0
INSERT
2
SMOOTH_0$254
8
PART_TOP_2DLINE_26
10
-2.7999993333
20
-1.5999993333
0
INSERT
2
SMOOTH_0$254
8
PART_TOP_2DLINE_26
10
-2.7999993333
20
1.5999993333
0
POLYLINE
8
PART_TOP_2DLINE_26
66
1
40
0.3999986667
41
0.3999986667
70
1
0
VERTEX
8
PART_TOP_2DLINE_26
10
-2.28
20
-5.0899993333
0
VERTEX
8
PART_TOP_2DLINE_26
10
-1.8999986667
20
-4.7100006667
0
VERTEX
8
PART_TOP_2DLINE_26
10
-1.8999986667
20
-4.7000006667
0
VERTEX
8
PART_TOP_2DLINE_26
10
-1.8899986667
20
-4.7000006667
0
VERTEX
8
PART_TOP_2DLINE_26
10
-1.4999993333
20
-5.0899993333
0
SEQEND
0
INSERT
2
SMOOTH_0$3999986667
8
PART_TOP_2DLINE_26
10
-2.28
20
-5.0899993333
0
INSERT
2
SMOOTH_0$3999986667
8
PART_TOP_2DLINE_26
10
-1.8999986667
20
-4.7100006667
0
INSERT
2
SMOOTH_0$3999986667
8
PART_TOP_2DLINE_26
10
-1.8999986667
20
-4.7000006667
0
INSERT
2
SMOOTH_0$3999986667
8
PART_TOP_2DLINE_26
10
-1.8899986667
20
-4.7000006667
0
INSERT
2
SMOOTH_0$3999986667
8
PART_TOP_2DLINE_26
10
-1.4999993333
20
-5.0899993333
0
ENDBLK
0
BLOCK
2
STK_TOP_17
8
0
10
0
20
0
3
STK_TOP_17
70
64
0
INSERT
2
DRIL_HOLE_0
8
DRIL_PLTE_THRU_01
10
0
20
0
0
INSERT
2
DRIL_HOLE_0
8
DRIL_PLTE_THRU_02
10
0
20
0
0
INSERT
2
DRIL_HOLE_0
8
DRIL_PLTE_THRU_03
10
0
20
0
0
INSERT
2
PAD_0
8
PADS_INNER
10
0
20
0
0
INSERT
2
PAD_0
8
PADS_BOT
10
0
20
0
0
INSERT
2
PAD_12
8
PADS_TOP
10
0
20
0
50
90
0
ENDBLK
0
BLOCK
2
STK_TOP_18
8
0
10
0
20
0
3
STK_TOP_18
70
64
0
INSERT
2
DRIL_HOLE_0
8
DRIL_PLTE_THRU_01
10
0
20
0
0
INSERT
2
DRIL_HOLE_0
8
DRIL_PLTE_THRU_02
10
0
20
0
0
INSERT
2
DRIL_HOLE_0
8
DRIL_PLTE_THRU_03
10
0
20
0
0
INSERT
2
PAD_0
8
PADS_INNER
10
0
20
0
0
INSERT
2
PAD_0
8
PADS_BOT
10
0
20
0
0
INSERT
2
PAD_13
8
PADS_TOP
10
0
20
0
0
ENDBLK
0
BLOCK
2
PART_BODY_TOP_26
8
0
10
0
20
0
3
PART_BODY_TOP_26
70
64
0
POLYLINE
8
PART_TOP_2DLINE_26
66
1
40
0.254
41
0.254
39
11.5001
70
1
0
VERTEX
8
PART_TOP_2DLINE_26
10
1.524002
20
0.000002
42
1
0
VERTEX
8
PART_TOP_2DLINE_26
10
-1.523998
20
0.000002
42
1
0
SEQEND
0
ENDBLK
0
BLOCK
2
STK_TOP_19
8
0
10
0
20
0
3
STK_TOP_19
70
64
0
INSERT
2
DRIL_HOLE_3$5
8
DRIL_NPLTE_THRU_01
10
0
20
0
0
INSERT
2
DRIL_HOLE_3$5
8
DRIL_NPLTE_THRU_02
10
0
20
0
0
INSERT
2
DRIL_HOLE_3$5
8
DRIL_NPLTE_THRU_03
10
0
20
0
0
INSERT
2
PAD_14
8
PADS_INNER
10
0
20
0
0
INSERT
2
PAD_14
8
PADS_BOT
10
0
20
0
0
INSERT
2
PAD_14
8
PADS_TOP
10
0
20
0
0
ENDBLK
0
BLOCK
2
STK_TOP_20
8
0
10
0
20
0
3
STK_TOP_20
70
64
0
INSERT
2
DRIL_HOLE_0$4999986667
8
DRIL_PLTE_THRU_01
10
0
20
0
0
INSERT
2
DRIL_HOLE_0$4999986667
8
DRIL_PLTE_THRU_02
10
0
20
0
0
INSERT
2
DRIL_HOLE_0$4999986667
8
DRIL_PLTE_THRU_03
10
0
20
0
0
INSERT
2
PAD_15
8
PADS_INNER
10
0
20
0
0
INSERT
2
PAD_15
8
PADS_BOT
10
0
20
0
0
INSERT
2
PAD_15
8
PADS_TOP
10
0
20
0
0
ENDBLK
0
BLOCK
2
PART_BODY_TOP_27
8
0
10
0
20
0
3
PART_BODY_TOP_27
70
64
0
POLYLINE
8
PART_TOP_2DLINE_26
66
1
40
0.1499993333
41
0.1499993333
39
11.5001
70
1
0
VERTEX
8
PART_TOP_2DLINE_26
10
-0.1898853333
20
3.269998
42
1
0
VERTEX
8
PART_TOP_2DLINE_26
10
-1.0101266667
20
3.269998
42
1
0
SEQEND
0
POLYLINE
8
PART_TOP_2DLINE_26
66
1
40
0.1499993333
41
0.1499993333
39
11.5001
70
1
0
VERTEX
8
PART_TOP_2DLINE_26
10
-3.6250066667
20
-3.4000006667
0
VERTEX
8
PART_TOP_2DLINE_26
10
3.54999
20
-3.4000006667
0
VERTEX
8
PART_TOP_2DLINE_26
10
3.6249986667
20
-3.4000006667
0
VERTEX
8
PART_TOP_2DLINE_26
10
3.6249986667
20
0.8000006667
0
VERTEX
8
PART_TOP_2DLINE_26
10
-3.6250066667
20
0.799998
0
SEQEND
0
INSERT
2
SMOOTH_0$1499993333
8
PART_TOP_2DLINE_26
10
-3.6250066667
20
-3.4000006667
0
INSERT
2
SMOOTH_0$1499993333
8
PART_TOP_2DLINE_26
10
3.54999
20
-3.4000006667
0
ENDBLK
0
BLOCK
2
STK_TOP_21
8
0
10
0
20
0
3
STK_TOP_21
70
64
0
INSERT
2
DRIL_HOLE_0
8
DRIL_NPLTE_THRU_01
10
0
20
0
0
INSERT
2
DRIL_HOLE_0
8
DRIL_NPLTE_THRU_02
10
0
20
0
0
INSERT
2
DRIL_HOLE_0
8
DRIL_NPLTE_THRU_03
10
0
20
0
0
INSERT
2
PAD_0
8
PADS_INNER
10
0
20
0
0
INSERT
2
PAD_0
8
PADS_BOT
10
0
20
0
0
INSERT
2
PAD_16
8
PADS_TOP
10
0
20
0
50
90
0
ENDBLK
0
BLOCK
2
STK_TOP_22
8
0
10
0
20
0
3
STK_TOP_22
70
64
0
INSERT
2
DRIL_HOLE_0
8
DRIL_NPLTE_THRU_01
10
0
20
0
0
INSERT
2
DRIL_HOLE_0
8
DRIL_NPLTE_THRU_02
10
0
20
0
0
INSERT
2
DRIL_HOLE_0
8
DRIL_NPLTE_THRU_03
10
0
20
0
0
INSERT
2
PAD_0
8
PADS_INNER
10
0
20
0
0
INSERT
2
PAD_0
8
PADS_BOT
10
0
20
0
0
INSERT
2
PAD_17
8
PADS_TOP
10
0
20
0
50
90
0
ENDBLK
0
BLOCK
2
PART_BODY_TOP_28
8
0
10
0
20
0
3
PART_BODY_TOP_28
70
64
0
POLYLINE
8
PART_TOP_2DLINE_26
66
1
40
0.1499993333
41
0.1499993333
70
1
0
VERTEX
8
PART_TOP_2DLINE_26
10
-13.9999973333
20
2.099998
0
VERTEX
8
PART_TOP_2DLINE_26
10
-13.9999973333
20
2.8999986667
0
VERTEX
8
PART_TOP_2DLINE_26
10
-14.9999973333
20
2.8999986667
0
VERTEX
8
PART_TOP_2DLINE_26
10
-14.9999973333
20
-2.2000006667
0
VERTEX
8
PART_TOP_2DLINE_26
10
15.0000026667
20
-2.2000006667
0
VERTEX
8
PART_TOP_2DLINE_26
10
15.0000026667
20
2.8999986667
0
VERTEX
8
PART_TOP_2DLINE_26
10
14.000002
20
2.8999986667
0
VERTEX
8
PART_TOP_2DLINE_26
10
14.000002
20
2.099998
0
SEQEND
0
INSERT
2
SMOOTH_0$1499993333
8
PART_TOP_2DLINE_26
10
-13.9999973333
20
2.099998
0
INSERT
2
SMOOTH_0$1499993333
8
PART_TOP_2DLINE_26
10
-13.9999973333
20
2.8999986667
0
INSERT
2
SMOOTH_0$1499993333
8
PART_TOP_2DLINE_26
10
-14.9999973333
20
2.8999986667
0
INSERT
2
SMOOTH_0$1499993333
8
PART_TOP_2DLINE_26
10
-14.9999973333
20
-2.2000006667
0
INSERT
2
SMOOTH_0$1499993333
8
PART_TOP_2DLINE_26
10
15.0000026667
20
-2.2000006667
0
INSERT
2
SMOOTH_0$1499993333
8
PART_TOP_2DLINE_26
10
15.0000026667
20
2.8999986667
0
INSERT
2
SMOOTH_0$1499993333
8
PART_TOP_2DLINE_26
10
14.000002
20
2.8999986667
0
INSERT
2
SMOOTH_0$1499993333
8
PART_TOP_2DLINE_26
10
14.000002
20
2.099998
0
ENDBLK
0
BLOCK
2
STK_TOP_23
8
0
10
0
20
0
3
STK_TOP_23
70
64
0
INSERT
2
DRIL_HOLE_0$8000006667
8
DRIL_PLTE_THRU_01
10
0
20
0
0
INSERT
2
DRIL_HOLE_0$8000006667
8
DRIL_PLTE_THRU_02
10
0
20
0
0
INSERT
2
DRIL_HOLE_0$8000006667
8
DRIL_PLTE_THRU_03
10
0
20
0
0
INSERT
2
PAD_18
8
PADS_INNER
10
0
20
0
0
INSERT
2
PAD_18
8
PADS_BOT
10
0
20
0
0
INSERT
2
PAD_19
8
PADS_TOP
10
0
20
0
0
ENDBLK
0
BLOCK
2
STK_TOP_24
8
0
10
0
20
0
3
STK_TOP_24
70
64
0
INSERT
2
DRIL_HOLE_0$8000006667
8
DRIL_PLTE_THRU_01
10
0
20
0
0
INSERT
2
DRIL_HOLE_0$8000006667
8
DRIL_PLTE_THRU_02
10
0
20
0
0
INSERT
2
DRIL_HOLE_0$8000006667
8
DRIL_PLTE_THRU_03
10
0
20
0
0
INSERT
2
PAD_18
8
PADS_INNER
10
0
20
0
0
INSERT
2
PAD_18
8
PADS_BOT
10
0
20
0
0
INSERT
2
PAD_20
8
PADS_TOP
10
0
20
0
0
ENDBLK
0
BLOCK
2
PART_BODY_TOP_29
8
0
10
0
20
0
3
PART_BODY_TOP_29
70
64
0
POLYLINE
8
PART_TOP_2DLINE_26
66
1
40
0.1499993333
41
0.1499993333
70
1
0
VERTEX
8
PART_TOP_2DLINE_26
10
-0.7000006667
20
-3.7
42
1
0
VERTEX
8
PART_TOP_2DLINE_26
10
-1.2999993333
20
-3.7
42
1
0
SEQEND
0
POLYLINE
8
PART_TOP_2DLINE_26
66
1
40
0.1499993333
41
0.1499993333
70
1
0
VERTEX
8
PART_TOP_2DLINE_26
10
-2.0000006667
20
-2.9999986667
0
VERTEX
8
PART_TOP_2DLINE_26
10
-2.0000006667
20
2.9999986667
0
VERTEX
8
PART_TOP_2DLINE_26
10
-0.4999986667
20
2.9999986667
0
VERTEX
8
PART_TOP_2DLINE_26
10
-0.4999986667
20
1.7999986667
0
VERTEX
8
PART_TOP_2DLINE_26
10
6.5999993333
20
1.7999986667
0
VERTEX
8
PART_TOP_2DLINE_26
10
6.5999993333
20
2.9999986667
0
VERTEX
8
PART_TOP_2DLINE_26
10
8.0999986667
20
2.9999986667
0
VERTEX
8
PART_TOP_2DLINE_26
10
8.0999986667
20
-2.9999986667
0
SEQEND
0
INSERT
2
SMOOTH_0$1499993333
8
PART_TOP_2DLINE_26
10
-2.0000006667
20
-2.9999986667
0
INSERT
2
SMOOTH_0$1499993333
8
PART_TOP_2DLINE_26
10
-2.0000006667
20
2.9999986667
0
INSERT
2
SMOOTH_0$1499993333
8
PART_TOP_2DLINE_26
10
-0.4999986667
20
2.9999986667
0
INSERT
2
SMOOTH_0$1499993333
8
PART_TOP_2DLINE_26
10
-0.4999986667
20
1.7999986667
0
INSERT
2
SMOOTH_0$1499993333
8
PART_TOP_2DLINE_26
10
6.5999993333
20
1.7999986667
0
INSERT
2
SMOOTH_0$1499993333
8
PART_TOP_2DLINE_26
10
6.5999993333
20
2.9999986667
0
INSERT
2
SMOOTH_0$1499993333
8
PART_TOP_2DLINE_26
10
8.0999986667
20
2.9999986667
0
INSERT
2
SMOOTH_0$1499993333
8
PART_TOP_2DLINE_26
10
8.0999986667
20
-2.9999986667
0
POLYLINE
8
PART_TOP_2DLINE_26
66
1
40
0.1499993333
41
0.1499993333
0
VERTEX
8
PART_TOP_2DLINE_26
10
1
20
1.7999986667
0
VERTEX
8
PART_TOP_2DLINE_26
10
1
20
2.9999986667
0
VERTEX
8
PART_TOP_2DLINE_26
10
5.0999993333
20
2.9999986667
0
VERTEX
8
PART_TOP_2DLINE_26
10
5.0999993333
20
1.7999986667
0
SEQEND
0
INSERT
2
SMOOTH_0$1499993333
8
PART_TOP_2DLINE_26
10
1
20
1.7999986667
0
INSERT
2
SMOOTH_0$1499993333
8
PART_TOP_2DLINE_26
10
1
20
2.9999986667
0
INSERT
2
SMOOTH_0$1499993333
8
PART_TOP_2DLINE_26
10
5.0999993333
20
2.9999986667
0
INSERT
2
SMOOTH_0$1499993333
8
PART_TOP_2DLINE_26
10
5.0999993333
20
1.7999986667
0
POLYLINE
8
PART_TOP_2DLINE_29
66
1
40
0.4999986667
41
0.4999986667
0
VERTEX
8
PART_TOP_2DLINE_29
10
1.0249986667
20
-1.1459993333
0
VERTEX
8
PART_TOP_2DLINE_29
10
1.0249986667
20
1.073
0
SEQEND
0
INSERT
2
SMOOTH_0$4999986667
8
PART_TOP_2DLINE_29
10
1.0249986667
20
-1.1459993333
0
INSERT
2
SMOOTH_0$4999986667
8
PART_TOP_2DLINE_29
10
1.0249986667
20
1.073
0
POLYLINE
8
PART_TOP_2DLINE_29
66
1
40
0.4999986667
41
0.4999986667
0
VERTEX
8
PART_TOP_2DLINE_29
10
3.0039993333
20
-1.1810006667
0
VERTEX
8
PART_TOP_2DLINE_29
10
3.0039993333
20
1.13
0
SEQEND
0
INSERT
2
SMOOTH_0$4999986667
8
PART_TOP_2DLINE_29
10
3.0039993333
20
-1.1810006667
0
INSERT
2
SMOOTH_0$4999986667
8
PART_TOP_2DLINE_29
10
3.0039993333
20
1.13
0
POLYLINE
8
PART_TOP_2DLINE_29
66
1
40
0.4999986667
41
0.4999986667
0
VERTEX
8
PART_TOP_2DLINE_29
10
5
20
1.1189993333
0
VERTEX
8
PART_TOP_2DLINE_29
10
5
20
-1.1919986667
0
VERTEX
8
PART_TOP_2DLINE_29
10
5.0519986667
20
-1.1919986667
0
SEQEND
0
INSERT
2
SMOOTH_0$4999986667
8
PART_TOP_2DLINE_29
10
5
20
1.1189993333
0
INSERT
2
SMOOTH_0$4999986667
8
PART_TOP_2DLINE_29
10
5
20
-1.1919986667
0
INSERT
2
SMOOTH_0$4999986667
8
PART_TOP_2DLINE_29
10
5.0519986667
20
-1.1919986667
0
ENDBLK
0
BLOCK
2
STK_TOP_25
8
0
10
0
20
0
3
STK_TOP_25
70
64
0
INSERT
2
DRIL_HOLE_0$9000006667
8
DRIL_PLTE_THRU_01
10
0
20
0
0
INSERT
2
DRIL_HOLE_0$9000006667
8
DRIL_PLTE_THRU_02
10
0
20
0
0
INSERT
2
DRIL_HOLE_0$9000006667
8
DRIL_PLTE_THRU_03
10
0
20
0
0
INSERT
2
PAD_11
8
PADS_INNER
10
0
20
0
50
90
0
INSERT
2
PAD_21
8
PADS_BOT
10
0
20
0
50
90
0
INSERT
2
PAD_21
8
PADS_TOP
10
0
20
0
50
90
0
ENDBLK
999
*** POWERPCB  PCB PARAMETER ***
0
BLOCK
2
PCB_PARAMS
8
0
10
0
20
0
3
PCB_PARAMS
70
64
999
 *  1.Job name           2.Backupfile name       3.CursorType
999
 *  4.TearDropFlag       5.HighlighNetsFlag      6.HatchDisplayFlag
999
 *  7.PadsFlag           8.TracksFlag            9.ViasFlag
999
 * 10.CopperFlag        11.LinesFlag            12.TextFlag
999
 * 13.TopComponentFlag  14.BottomComponentFlag  16.ObjectSnapFlags
0
TEXT
8
PCB_PARAMS
10
0
20
-3.048
40
1.778
1
A:=Untitled <> 5 1 0 1 1 1 1 1 1 1 1 1 0 502 0
999
 *  1.RefDesHeight       2.RefDesWidth           3.DefaultWidth
999
 *  4.VGX                5.VGY                   6.OVR
999
 *  7.HatchGrid          8.ObjectSnapRadius
0
TEXT
8
PCB_PARAMS
10
0
20
-6.096
40
1.778
1
B:=2.54 0.254 0.3048 0.635 0.635 0.0762 1.27 0.635
999
 *  1.ScaleFactor        2.NetAttributeFlags     3.BackupInterval
999
 *  4.WorkingLevel       5.HatchMode             6.HatchDirection
999
 *  7.ConnectionColor    8.BackgroundColor       9.ForegroundColor
999
 * 10.BoardOutlineColor
0
TEXT
8
PCB_PARAMS
10
0
20
-9.144
40
1.778
1
C:=8.8601751328 10002 20 1 0 0 3 0 13 13
999
 * MitreAngle0 - MitreAngle6
0
TEXT
8
PCB_PARAMS
10
0
20
-12.192
40
1.778
1
D:=324000000 324000000 324000000 324000000 324000000 324000000 324000000
999
 * Hatch & Keepout Parameters
0
TEXT
8
PCB_PARAMS
10
0
20
-15.24
40
1.778
1
E:=0.5 0 0 2.54 0 1
999
 * Fanout Parameters
0
TEXT
8
PCB_PARAMS
10
0
20
-18.288
40
1.778
1
F:=0.635 0.635 6.35 1 2 0 1 1 0 0 1 1 1 1
999
 * Pad Entry Parameters
0
TEXT
8
PCB_PARAMS
10
0
20
-21.336
40
1.778
1
P:= 1 1 1 1
999
 * DFF Parameters
0
TEXT
8
PCB_PARAMS
10
0
20
-24.384
40
1.778
1
Q:=89.9999 3967 114300 114300 114300 5 4 114300 114300 114300 114300 1 114300 1 114300 1 114300 0
0
ENDBLK
0
BLOCK
2
DRIL_SYMBOL_0
8
0
10
0
20
0
3
DRIL_SYMBOL_0
70
64
0
ENDBLK
0
BLOCK
2
DRIL_SYMBOL_1
8
0
10
0
20
0
3
DRIL_SYMBOL_1
70
64
0
POLYLINE
8
DRIL_SYMBOL
66
1
40
0.0508
41
0.0508
0
VERTEX
8
DRIL_SYMBOL
10
0
20
-0.254
0
VERTEX
8
DRIL_SYMBOL
10
0
20
0.254
0
SEQEND
0
POLYLINE
8
DRIL_SYMBOL
66
1
40
0.0508
41
0.0508
0
VERTEX
8
DRIL_SYMBOL
10
-0.254
20
0
0
VERTEX
8
DRIL_SYMBOL
10
0.254
20
0
0
SEQEND
0
ENDBLK
0
BLOCK
2
DRIL_SYMBOL_0$5999986667
8
0
10
0
20
0
3
DRIL_SYMBOL_0$5999986667
70
64
0
POLYLINE
8
DRIL_SYMBOL
66
1
40
0.0508
41
0.0508
0
VERTEX
8
DRIL_SYMBOL
10
0
20
-0.254
0
VERTEX
8
DRIL_SYMBOL
10
0
20
0.254
0
SEQEND
0
POLYLINE
8
DRIL_SYMBOL
66
1
40
0.0508
41
0.0508
0
VERTEX
8
DRIL_SYMBOL
10
-0.254
20
0
0
VERTEX
8
DRIL_SYMBOL
10
0.254
20
0
0
SEQEND
0
ENDBLK
0
BLOCK
2
DRIL_SYMBOL_1$6999986667
8
0
10
0
20
0
3
DRIL_SYMBOL_1$6999986667
70
64
0
POLYLINE
8
DRIL_SYMBOL
66
1
40
0.0508
41
0.0508
0
VERTEX
8
DRIL_SYMBOL
10
0
20
-0.254
0
VERTEX
8
DRIL_SYMBOL
10
0
20
0.254
0
SEQEND
0
POLYLINE
8
DRIL_SYMBOL
66
1
40
0.0508
41
0.0508
0
VERTEX
8
DRIL_SYMBOL
10
-0.254
20
0
0
VERTEX
8
DRIL_SYMBOL
10
0.254
20
0
0
SEQEND
0
ENDBLK
0
BLOCK
2
DRIL_SYMBOL_3$5
8
0
10
0
20
0
3
DRIL_SYMBOL_3$5
70
64
0
POLYLINE
8
DRIL_SYMBOL
66
1
40
0.0508
41
0.0508
0
VERTEX
8
DRIL_SYMBOL
10
0
20
-0.254
0
VERTEX
8
DRIL_SYMBOL
10
0
20
0.254
0
SEQEND
0
POLYLINE
8
DRIL_SYMBOL
66
1
40
0.0508
41
0.0508
0
VERTEX
8
DRIL_SYMBOL
10
-0.254
20
0
0
VERTEX
8
DRIL_SYMBOL
10
0.254
20
0
0
SEQEND
0
ENDBLK
0
BLOCK
2
DRIL_SYMBOL_0$4999986667
8
0
10
0
20
0
3
DRIL_SYMBOL_0$4999986667
70
64
0
POLYLINE
8
DRIL_SYMBOL
66
1
40
0.0508
41
0.0508
0
VERTEX
8
DRIL_SYMBOL
10
0
20
-0.254
0
VERTEX
8
DRIL_SYMBOL
10
0
20
0.254
0
SEQEND
0
POLYLINE
8
DRIL_SYMBOL
66
1
40
0.0508
41
0.0508
0
VERTEX
8
DRIL_SYMBOL
10
-0.254
20
0
0
VERTEX
8
DRIL_SYMBOL
10
0.254
20
0
0
SEQEND
0
ENDBLK
0
BLOCK
2
DRIL_SYMBOL_0$8000006667
8
0
10
0
20
0
3
DRIL_SYMBOL_0$8000006667
70
64
0
POLYLINE
8
DRIL_SYMBOL
66
1
40
0.0508
41
0.0508
0
VERTEX
8
DRIL_SYMBOL
10
0
20
-0.254
0
VERTEX
8
DRIL_SYMBOL
10
0
20
0.254
0
SEQEND
0
POLYLINE
8
DRIL_SYMBOL
66
1
40
0.0508
41
0.0508
0
VERTEX
8
DRIL_SYMBOL
10
-0.254
20
0
0
VERTEX
8
DRIL_SYMBOL
10
0.254
20
0
0
SEQEND
0
ENDBLK
0
BLOCK
2
DRIL_SYMBOL_0$9000006667
8
0
10
0
20
0
3
DRIL_SYMBOL_0$9000006667
70
64
0
POLYLINE
8
DRIL_SYMBOL
66
1
40
0.0508
41
0.0508
0
VERTEX
8
DRIL_SYMBOL
10
0
20
-0.254
0
VERTEX
8
DRIL_SYMBOL
10
0
20
0.254
0
SEQEND
0
POLYLINE
8
DRIL_SYMBOL
66
1
40
0.0508
41
0.0508
0
VERTEX
8
DRIL_SYMBOL
10
-0.254
20
0
0
VERTEX
8
DRIL_SYMBOL
10
0.254
20
0
0
SEQEND
0
ENDBLK
999
*** POWERPCB  SMOOTH CIRCLE ***
0
BLOCK
2
SMOOTH_0$2999993333
8
0
10
0
20
0
3
SMOOTH_0$2999993333
70
64
0
POLYLINE
8
0
66
1
40
0.1499993333
41
0.1499993333
70
1
0
VERTEX
8
0
10
-0.0749993333
20
0
42
1
0
VERTEX
8
0
10
0.0749993333
20
0
42
1
0
SEQEND
0
ENDBLK
0
BLOCK
2
SMOOTH_0$254
8
0
10
0
20
0
3
SMOOTH_0$254
70
64
0
POLYLINE
8
0
66
1
40
0.127
41
0.127
70
1
0
VERTEX
8
0
10
-0.0635
20
0
42
1
0
VERTEX
8
0
10
0.0635
20
0
42
1
0
SEQEND
0
ENDBLK
0
BLOCK
2
SMOOTH_0$1199993333
8
0
10
0
20
0
3
SMOOTH_0$1199993333
70
64
0
POLYLINE
8
0
66
1
40
0.0599993333
41
0.0599993333
70
1
0
VERTEX
8
0
10
-0.0299993333
20
0
42
1
0
VERTEX
8
0
10
0.0299993333
20
0
42
1
0
SEQEND
0
ENDBLK
0
BLOCK
2
SMOOTH_0$1499993333
8
0
10
0
20
0
3
SMOOTH_0$1499993333
70
64
0
POLYLINE
8
0
66
1
40
0.0749993333
41
0.0749993333
70
1
0
VERTEX
8
0
10
-0.0374993333
20
0
42
1
0
VERTEX
8
0
10
0.0374993333
20
0
42
1
0
SEQEND
0
ENDBLK
0
BLOCK
2
SMOOTH_0$2032
8
0
10
0
20
0
3
SMOOTH_0$2032
70
64
0
POLYLINE
8
0
66
1
40
0.1016
41
0.1016
70
1
0
VERTEX
8
0
10
-0.0508
20
0
42
1
0
VERTEX
8
0
10
0.0508
20
0
42
1
0
SEQEND
0
ENDBLK
0
BLOCK
2
SMOOTH_0$1778
8
0
10
0
20
0
3
SMOOTH_0$1778
70
64
0
POLYLINE
8
0
66
1
40
0.0889
41
0.0889
70
1
0
VERTEX
8
0
10
-0.04445
20
0
42
1
0
VERTEX
8
0
10
0.04445
20
0
42
1
0
SEQEND
0
ENDBLK
0
BLOCK
2
SMOOTH_0$3999986667
8
0
10
0
20
0
3
SMOOTH_0$3999986667
70
64
0
POLYLINE
8
0
66
1
40
0.1999993333
41
0.1999993333
70
1
0
VERTEX
8
0
10
-0.0999993333
20
0
42
1
0
VERTEX
8
0
10
0.0999993333
20
0
42
1
0
SEQEND
0
ENDBLK
0
BLOCK
2
SMOOTH_0$4999986667
8
0
10
0
20
0
3
SMOOTH_0$4999986667
70
64
0
POLYLINE
8
0
66
1
40
0.2499993333
41
0.2499993333
70
1
0
VERTEX
8
0
10
-0.1249993333
20
0
42
1
0
VERTEX
8
0
10
0.1249993333
20
0
42
1
0
SEQEND
0
ENDBLK
0
BLOCK
2
PAD_0
8
0
10
0
20
0
3
PAD_0
70
64
0
POLYLINE
8
0
70
1
66
1
0
VERTEX
8
0
10
0
20
0
42
1
0
VERTEX
8
0
10
0
20
0
42
1
0
SEQEND
0
ENDBLK
0
BLOCK
2
PAD_1
8
0
10
0
20
0
3
PAD_1
70
64
0
POLYLINE
8
0
66
1
40
2.3
41
2.3
0
VERTEX
8
0
10
-1.9999993333
20
0
0
VERTEX
8
0
10
1.9999993333
20
0
0
SEQEND
0
ENDBLK
0
BLOCK
2
PAD_2
8
0
10
0
20
0
3
PAD_2
70
64
0
POLYLINE
8
0
66
1
40
1.016
41
1.016
0
VERTEX
8
0
10
-0.5207
20
0
0
VERTEX
8
0
10
0.5207
20
0
0
SEQEND
0
ENDBLK
0
BLOCK
2
PAD_3
8
0
10
0
20
0
3
PAD_3
70
64
0
POLYLINE
8
0
66
1
40
1
41
1
0
VERTEX
8
0
10
-1.7
20
0
0
VERTEX
8
0
10
1.7
20
0
0
SEQEND
0
ENDBLK
0
BLOCK
2
PAD_4
8
0
10
0
20
0
3
PAD_4
70
64
0
POLYLINE
8
0
66
1
40
1.4999993333
41
1.4999993333
0
VERTEX
8
0
10
-1.8
20
0
0
VERTEX
8
0
10
1.8
20
0
0
SEQEND
0
ENDBLK
0
BLOCK
2
PAD_5
8
0
10
0
20
0
3
PAD_5
70
64
0
POLYLINE
8
0
66
1
40
3.6
41
3.6
0
VERTEX
8
0
10
-1.9999993333
20
0
0
VERTEX
8
0
10
1.9999993333
20
0
0
SEQEND
0
ENDBLK
0
BLOCK
2
PAD_6
8
0
10
0
20
0
3
PAD_6
70
64
0
POLYLINE
8
0
70
1
66
1
40
1.27
41
1.27
0
VERTEX
8
0
10
-1.143
20
-0.635
0
VERTEX
8
0
10
1.143
20
-0.635
42
1
0
VERTEX
8
0
10
1.143
20
0.635
0
VERTEX
8
0
10
-1.143
20
0.635
42
1
0
SEQEND
0
ENDBLK
0
BLOCK
2
PAD_7
8
0
10
0
20
0
3
PAD_7
70
64
0
POLYLINE
8
0
70
1
66
1
40
0.7499993333
41
0.7499993333
0
VERTEX
8
0
10
-0.7499993333
20
-0.3749993333
0
VERTEX
8
0
10
0.7499993333
20
-0.3749993333
42
1
0
VERTEX
8
0
10
0.7499993333
20
0.3749993333
0
VERTEX
8
0
10
-0.7499993333
20
0.3749993333
42
1
0
SEQEND
0
ENDBLK
0
BLOCK
2
PAD_8
8
0
10
0
20
0
3
PAD_8
70
64
0
POLYLINE
8
0
70
1
66
1
40
0.0127
41
0.0127
0
VERTEX
8
0
10
0
20
-0.00635
42
1
0
VERTEX
8
0
10
0
20
0.00635
42
1
0
SEQEND
0
ENDBLK
0
BLOCK
2
PAD_9
8
0
10
0
20
0
3
PAD_9
70
64
0
POLYLINE
8
0
70
1
66
1
40
0.7499993333
41
0.7499993333
0
VERTEX
8
0
10
-0.6
20
-0.3749993333
0
VERTEX
8
0
10
0.6
20
-0.3749993333
42
1
0
VERTEX
8
0
10
0.6
20
0.3749993333
0
VERTEX
8
0
10
-0.6
20
0.3749993333
42
1
0
SEQEND
0
ENDBLK
0
BLOCK
2
PAD_10
8
0
10
0
20
0
3
PAD_10
70
64
0
POLYLINE
8
0
66
1
40
5
41
5
0
VERTEX
8
0
10
-2.6999993333
20
0
0
VERTEX
8
0
10
2.6999993333
20
0
0
SEQEND
0
ENDBLK
0
BLOCK
2
PAD_11
8
0
10
0
20
0
3
PAD_11
70
64
0
POLYLINE
8
0
70
1
66
1
40
0.7499993333
41
0.7499993333
0
VERTEX
8
0
10
0
20
-0.3749993333
42
1
0
VERTEX
8
0
10
0
20
0.3749993333
42
1
0
SEQEND
0
ENDBLK
0
BLOCK
2
PAD_12
8
0
10
0
20
0
3
PAD_12
70
64
0
POLYLINE
8
0
70
1
66
1
40
0.35
41
0.35
0
VERTEX
8
0
10
-0.7999993333
20
-0.175
0
VERTEX
8
0
10
0.7999993333
20
-0.175
42
1
0
VERTEX
8
0
10
0.7999993333
20
0.175
0
VERTEX
8
0
10
-0.7999993333
20
0.175
42
1
0
SEQEND
0
ENDBLK
0
BLOCK
2
PAD_13
8
0
10
0
20
0
3
PAD_13
70
64
0
POLYLINE
8
0
66
1
40
2.9999986667
41
2.9999986667
0
VERTEX
8
0
10
-1.9999993333
20
0
0
VERTEX
8
0
10
1.9999993333
20
0
0
SEQEND
0
ENDBLK
0
BLOCK
2
PAD_14
8
0
10
0
20
0
3
PAD_14
70
64
0
POLYLINE
8
0
70
1
66
1
40
1.75
41
1.75
0
VERTEX
8
0
10
0
20
-0.875
42
1
0
VERTEX
8
0
10
0
20
0.875
42
1
0
SEQEND
0
ENDBLK
0
BLOCK
2
PAD_15
8
0
10
0
20
0
3
PAD_15
70
64
0
POLYLINE
8
0
70
1
66
1
40
0.6499993333
41
0.6499993333
0
VERTEX
8
0
10
0
20
-0.3249993333
42
1
0
VERTEX
8
0
10
0
20
0.3249993333
42
1
0
SEQEND
0
ENDBLK
0
BLOCK
2
PAD_16
8
0
10
0
20
0
3
PAD_16
70
64
0
POLYLINE
8
0
70
1
66
1
40
0.4
41
0.4
0
VERTEX
8
0
10
-0.5499986667
20
-0.2
0
VERTEX
8
0
10
0.5499986667
20
-0.2
42
1
0
VERTEX
8
0
10
0.5499986667
20
0.2
0
VERTEX
8
0
10
-0.5499986667
20
0.2
42
1
0
SEQEND
0
ENDBLK
0
BLOCK
2
PAD_17
8
0
10
0
20
0
3
PAD_17
70
64
0
POLYLINE
8
0
66
1
40
2.5
41
2.5
0
VERTEX
8
0
10
-1.4999993333
20
0
0
VERTEX
8
0
10
1.4999993333
20
0
0
SEQEND
0
ENDBLK
0
BLOCK
2
PAD_18
8
0
10
0
20
0
3
PAD_18
70
64
0
POLYLINE
8
0
70
1
66
1
40
0.762
41
0.762
0
VERTEX
8
0
10
0
20
-0.381
42
1
0
VERTEX
8
0
10
0
20
0.381
42
1
0
SEQEND
0
ENDBLK
0
BLOCK
2
PAD_19
8
0
10
0
20
0
3
PAD_19
70
64
0
POLYLINE
8
0
66
1
40
1.3999993333
41
1.3999993333
0
VERTEX
8
0
10
-0.6999993333
20
0
0
VERTEX
8
0
10
0.6999993333
20
0
0
SEQEND
0
ENDBLK
0
BLOCK
2
PAD_20
8
0
10
0
20
0
3
PAD_20
70
64
0
POLYLINE
8
0
70
1
66
1
40
0.6999993333
41
0.6999993333
0
VERTEX
8
0
10
0
20
-0.3499993333
42
1
0
VERTEX
8
0
10
0
20
0.3499993333
42
1
0
SEQEND
0
ENDBLK
0
BLOCK
2
PAD_21
8
0
10
0
20
0
3
PAD_21
70
64
0
POLYLINE
8
0
70
1
66
1
40
0.7499993333
41
0.7499993333
0
VERTEX
8
0
10
-0.1499993333
20
-0.3749993333
0
VERTEX
8
0
10
0.1499993333
20
-0.3749993333
42
1
0
VERTEX
8
0
10
0.1499993333
20
0.3749993333
0
VERTEX
8
0
10
-0.1499993333
20
0.3749993333
42
1
0
SEQEND
0
ENDBLK
999
*** POWERPCB  DRILL HOLE ***
0
BLOCK
2
DRIL_HOLE_0
8
0
10
0
20
0
3
DRIL_HOLE_0
70
64
0
POLYLINE
8
0
66
1
70
1
0
VERTEX
8
0
10
0
20
0
42
1
0
VERTEX
8
0
10
0
20
0
42
1
0
SEQEND
0
INSERT
2
DRIL_SYMBOL_0
8
0
10
0
20
0
0
ENDBLK
0
BLOCK
2
DRIL_HOLE_1
8
0
10
0
20
0
3
DRIL_HOLE_1
70
64
0
POLYLINE
8
0
66
1
40
0.5
41
0.5
70
1
0
VERTEX
8
0
10
-0.25
20
0
42
1
0
VERTEX
8
0
10
0.25
20
0
42
1
0
SEQEND
0
INSERT
2
DRIL_SYMBOL_1
8
0
10
0
20
0
0
ENDBLK
0
BLOCK
2
DRIL_HOLE_0$5999986667
8
0
10
0
20
0
3
DRIL_HOLE_0$5999986667
70
64
0
POLYLINE
8
0
66
1
40
0.2999993333
41
0.2999993333
70
1
0
VERTEX
8
0
10
-0.1499993333
20
0
42
1
0
VERTEX
8
0
10
0.1499993333
20
0
42
1
0
SEQEND
0
INSERT
2
DRIL_SYMBOL_0$5999986667
8
0
10
0
20
0
0
ENDBLK
0
BLOCK
2
DRIL_HOLE_1$6999986667
8
0
10
0
20
0
3
DRIL_HOLE_1$6999986667
70
64
0
POLYLINE
8
0
66
1
40
0.8499993333
41
0.8499993333
70
1
0
VERTEX
8
0
10
-0.4249993333
20
0
42
1
0
VERTEX
8
0
10
0.4249993333
20
0
42
1
0
SEQEND
0
INSERT
2
DRIL_SYMBOL_1$6999986667
8
0
10
0
20
0
0
ENDBLK
0
BLOCK
2
DRIL_HOLE_3$5
8
0
10
0
20
0
3
DRIL_HOLE_3$5
70
64
0
POLYLINE
8
0
66
1
40
1.75
41
1.75
70
1
0
VERTEX
8
0
10
-0.875
20
0
42
1
0
VERTEX
8
0
10
0.875
20
0
42
1
0
SEQEND
0
INSERT
2
DRIL_SYMBOL_3$5
8
0
10
0
20
0
0
ENDBLK
0
BLOCK
2
DRIL_HOLE_0$4999986667
8
0
10
0
20
0
3
DRIL_HOLE_0$4999986667
70
64
0
POLYLINE
8
0
66
1
40
0.2499993333
41
0.2499993333
70
1
0
VERTEX
8
0
10
-0.1249993333
20
0
42
1
0
VERTEX
8
0
10
0.1249993333
20
0
42
1
0
SEQEND
0
INSERT
2
DRIL_SYMBOL_0$4999986667
8
0
10
0
20
0
0
ENDBLK
0
BLOCK
2
DRIL_HOLE_0$8000006667
8
0
10
0
20
0
3
DRIL_HOLE_0$8000006667
70
64
0
POLYLINE
8
0
66
1
40
0.4
41
0.4
70
1
0
VERTEX
8
0
10
-0.2
20
0
42
1
0
VERTEX
8
0
10
0.2
20
0
42
1
0
SEQEND
0
INSERT
2
DRIL_SYMBOL_0$8000006667
8
0
10
0
20
0
0
ENDBLK
0
BLOCK
2
DRIL_HOLE_0$9000006667
8
0
10
0
20
0
3
DRIL_HOLE_0$9000006667
70
64
0
POLYLINE
8
0
66
1
40
0.45
41
0.45
70
1
0
VERTEX
8
0
10
-0.225
20
0
42
1
0
VERTEX
8
0
10
0.225
20
0
42
1
0
SEQEND
0
INSERT
2
DRIL_SYMBOL_0$9000006667
8
0
10
0
20
0
0
ENDBLK
0
BLOCK
2
DRIL_SLOT_0003900137000000000
8
0
10
0
20
0
3
DRIL_SLOT_0003900137000000000
70
64
0
POLYLINE
8
0
70
1
66
1
40
0.5
41
0.5
0
VERTEX
8
0
10
-1.25
20
-0.25
0
VERTEX
8
0
10
1.25
20
-0.25
42
1
0
VERTEX
8
0
10
1.25
20
0.25
0
VERTEX
8
0
10
-1.25
20
0.25
42
1
0
SEQEND
0
ENDBLK
0
BLOCK
2
DRIL_SLOT_0003900118000000000
8
0
10
0
20
0
3
DRIL_SLOT_0003900118000000000
70
64
0
POLYLINE
8
0
70
1
66
1
40
0.5
41
0.5
0
VERTEX
8
0
10
-0.9999993333
20
-0.25
0
VERTEX
8
0
10
0.9999993333
20
-0.25
42
1
0
VERTEX
8
0
10
0.9999993333
20
0.25
0
VERTEX
8
0
10
-0.9999993333
20
0.25
42
1
0
SEQEND
0
ENDBLK
0
ENDSEC
0
SECTION
2
ENTITIES
999
*** POWERPCB  DBLAYER ***
0
INSERT
2
DBLAYERS
8
0
10
0
20
0
999
*** POWERPCB  BOARD ***
0
INSERT
2
BOARD_4
8
0
10
-50.8
20
-76.2
999
*** POWERPCB  2DLINE ***
0
INSERT
2
DRAWING_1
8
0
10
36.957
20
4.699
0
INSERT
2
DRAWING_2
8
0
10
48.895
20
4.699
0
INSERT
2
DRAWING_3
8
0
10
0
20
0
0
INSERT
2
D_4defghi_5
8
0
10
71.374
20
43
0
INSERT
2
D_4defghi_6
8
0
10
71.374
20
4.9999973333
0
INSERT
2
D_4defghi_7
8
0
10
71.374
20
0
0
INSERT
2
D_4defghi_8
8
0
10
-21.59
20
0
0
INSERT
2
D_4defghi_9
8
0
10
-15.621
20
0
0
INSERT
2
D_4defghi_10
8
0
10
-8.382
20
0
0
INSERT
2
D_4defghi_11
8
0
10
59.9999993333
20
-8.89
0
INSERT
2
D_4defghi_12
8
0
10
4.9999973333
20
-8.763
0
INSERT
2
D_4defghi_13
8
0
10
0
20
-8.89
999
*** POWERPCB  FREE TEXT ***
0
TEXT
8
TEXT_26
10
4.445
20
27.813
40
0.5334
1
+ +
41
0.75
7
W0$1016
0
TEXT
8
TEXT_26
10
4.445
20
28.575
40
0.5334
1
- -
41
0.75
7
W0$1016
0
TEXT
8
TEXT_26
10
4.445
20
29.718
40
0.5334
1
- +
41
0.75
7
W0$1016
0
TEXT
8
TEXT_26
10
4.445
20
30.607
40
0.5334
1
- +
41
0.75
7
W0$1016
0
TEXT
8
TEXT_26
10
15.433614
20
25.017026
40
0.7
1
V2.0
50
270
41
0.75
7
W0$0999993333
0
TEXT
8
TEXT_26
10
15.433616
20
29.207622
40
0.6999986
1
REV:
50
270
41
0.75
7
W0$0999993333
0
TEXT
8
TEXT_26
10
18.0336133333
20
23.874026
40
0.7
1
2011.12.30
50
270
41
0.75
7
W0$0999993333
0
TEXT
8
TEXT_26
10
18.033616
20
29.20762
40
0.6999986
1
DATE:
50
270
41
0.75
7
W0$0999993333
0
TEXT
8
TEXT_26
10
20.783618
20
23.007622
40
0.7
1
HI-POWER
50
270
41
0.75
7
W0$0999993333
0
TEXT
8
TEXT_26
10
20.7586146667
20
29.1990446667
40
0.6999986
1
MODEL:
50
270
41
0.75
7
W0$0999993333
0
TEXT
8
TEXT_26
10
30.353
20
5.08
40
0.5334
1
24V
41
0.75
7
W0$1016
0
TEXT
8
TEXT_26
10
41.91
20
5.08
40
0.5334
1
GND
41
0.75
7
W0$1016
0
TEXT
8
TEXT_26
10
49.403
20
4.953
40
0.5334
1
NC
41
0.75
7
W0$1016
0
TEXT
8
TEXT_26
10
52.451
20
12.446
40
0.5334
1
ADJ
50
90
41
0.75
7
W0$1016
0
TEXT
8
TEXT_26
10
54.356
20
12.446
40
0.5334
1
EN
50
90
41
0.75
7
W0$1016
0
TEXT
8
TEXT_26
10
48.133
20
12.446
40
0.5334
1
GND
41
0.75
7
W0$1016
0
TEXT
8
TEXT_24
10
70.0799993333
20
5.08
40
0.4445
1
.LEGEND
41
0.75
7
W0$1016
0
TEXT
8
TEXT_24
10
70.0799993333
20
2.54
40
0.4445
1
Drill Drawing.
41
0.75
7
W0$1016
999
*** POWERPCB  COMPONENT ***
0
INSERT
2
PART_TOP_0
8
0
10
15.24
20
36.068
50
180
0
INSERT
2
PART_TOP_1
8
0
10
24.892
20
36.068
50
180
0
INSERT
2
PART_TOP_2
8
0
10
29.464
20
26.416
50
90
0
INSERT
2
PART_TOP_3
8
0
10
27.432
20
26.416
50
90
0
INSERT
2
PART_TOP_4
8
0
10
28.575
20
10.16
50
90
0
INSERT
2
PART_TOP_5
8
0
10
40.64
20
36.068
50
180
0
INSERT
2
PART_TOP_6
8
0
10
50.8
20
36.068
50
180
0
INSERT
2
PART_TOP_7
8
0
10
34.036
20
26.924
50
180
0
INSERT
2
PART_TOP_8
8
0
10
19.304
20
5.4999986667
0
INSERT
2
PART_TOP_9
8
0
10
42.672
20
9.652
0
INSERT
2
PART_TOP_10
8
0
10
0
20
15
50
180
0
INSERT
2
PART_TOP_11
8
0
10
-4.572
20
21.9999986667
50
270
0
INSERT
2
PART_TOP_12
8
0
10
-4.572
20
24
50
270
0
INSERT
2
PART_TOP_13
8
0
10
45.212
20
21.844
50
90
0
INSERT
2
PART_TOP_14
8
0
10
25.4
20
26.416
50
270
0
INSERT
2
PART_TOP_15
8
0
10
34.036
20
24.892
50
180
0
INSERT
2
PART_TOP_16
8
0
10
34.036
20
22.86
0
INSERT
2
PART_TOP_17
8
0
10
16.764
20
13.716
0
INSERT
2
PART_TOP_18
8
0
10
35.56
20
31.496
50
90
0
INSERT
2
PART_TOP_19
8
0
10
27.94
20
18.288
0
INSERT
2
PART_TOP_20
8
0
10
4.9999973333
20
4.9999973333
0
INSERT
2
PART_TOP_21
8
0
10
4.9999973333
20
38
0
INSERT
2
PART_TOP_22
8
0
10
59.9999993333
20
38
0
INSERT
2
PART_TOP_23
8
0
10
59.9999993333
20
4.9999973333
0
INSERT
2
PART_TOP_24
8
0
10
61.4999986667
20
13.5000006667
50
90
0
INSERT
2
PART_TOP_25
8
0
10
40.9999986667
20
2.5
0
INSERT
2
PART_TOP_26
8
0
10
59.5
20
25.0000006667
50
90
0
INSERT
2
PART_TOP_27
8
0
10
48
20
8.9999993333
999
*** POWERPCB  PCB PARAMETER ***
0
INSERT
2
PCB_PARAMS
8
0
10
0
20
0
0
ENDSEC
0
EOF
